ISO-10303-21;
HEADER;
FILE_DESCRIPTION (( 'STEP AP214' ),
    '1' );
FILE_NAME ('GDMLPH-510-25x36.STEP',
    '2024-08-13T06:03:15',
    ( 'Windows User' ),
    ( 'P R C' ),
    'SwSTEP 2.0',
    'SolidWorks 2022',
    '' );
FILE_SCHEMA (( 'AUTOMOTIVE_DESIGN' ));
ENDSEC;

DATA;
#1 = EDGE_CURVE ( 'NONE', #32, #26, #29, .T. ) ;
#2 = PRODUCT_DEFINITION_CONTEXT ( 'detailed design', #72, 'design' ) ;
#3 = ORIENTED_EDGE ( 'NONE', *, *, #47, .T. ) ;
#4 = PRODUCT ( 'GDMLPH-510-25x36', 'GDMLPH-510-25x36', '', ( #12 ) ) ;
#5 =( LENGTH_UNIT ( ) NAMED_UNIT ( * ) SI_UNIT ( .MILLI., .METRE. ) );
#6 = CARTESIAN_POINT ( 'NONE',  ( 0.000000000000000000, 0.000000000000000000, 0.000000000000000000 ) ) ;
#7 = AXIS2_PLACEMENT_3D ( 'NONE', #135, #187, #92 ) ;
#8 = SURFACE_SIDE_STYLE ('',( #51 ) ) ;
#9 = FACE_OUTER_BOUND ( 'NONE', #137, .T. ) ;
#10 = SURFACE_STYLE_USAGE ( .BOTH. , #198 ) ;
#11 = FACE_OUTER_BOUND ( 'NONE', #48, .T. ) ;
#12 = PRODUCT_CONTEXT ( 'NONE', #146, 'mechanical' ) ;
#13 = ORIENTED_EDGE ( 'NONE', *, *, #41, .F. ) ;
#14 = AXIS2_PLACEMENT_3D ( 'NONE', #111, #197, #171 ) ;
#15 = ADVANCED_FACE ( 'NONE', ( #11 ), #175, .F. ) ;
#16 = CARTESIAN_POINT ( 'NONE',  ( 0.000000000000000000, 25.00000000000000000, 1.100000000000000089 ) ) ;
#17 = VERTEX_POINT ( 'NONE', #95 ) ;
#18 = ORIENTED_EDGE ( 'NONE', *, *, #157, .T. ) ;
#19 = CLOSED_SHELL ( 'NONE', ( #142, #15, #151, #25, #35, #109 ) ) ;
#20 = LINE ( 'NONE', #193, #126 ) ;
#21 = FACE_OUTER_BOUND ( 'NONE', #77, .T. ) ;
#22 = DIRECTION ( 'NONE',  ( 0.000000000000000000, 1.000000000000000000, 0.000000000000000000 ) ) ;
#23 = LINE ( 'NONE', #67, #55 ) ;
#24 =( LENGTH_UNIT ( ) NAMED_UNIT ( * ) SI_UNIT ( .MILLI., .METRE. ) );
#25 = ADVANCED_FACE ( 'NONE', ( #155 ), #158, .F. ) ;
#26 = VERTEX_POINT ( 'NONE', #37 ) ;
#27 = ORIENTED_EDGE ( 'NONE', *, *, #86, .T. ) ;
#28 = APPLICATION_PROTOCOL_DEFINITION ( 'draft international standard', 'automotive_design', 1998, #72 ) ;
#29 = LINE ( 'NONE', #105, #195 ) ;
#30 = VECTOR ( 'NONE', #22, 1000.000000000000000 ) ;
#31 = EDGE_CURVE ( 'NONE', #96, #58, #20, .T. ) ;
#32 = VERTEX_POINT ( 'NONE', #82 ) ;
#33 = DIRECTION ( 'NONE',  ( -0.000000000000000000, -1.000000000000000000, -0.000000000000000000 ) ) ;
#34 = CARTESIAN_POINT ( 'NONE',  ( 36.00000000000000000, 0.000000000000000000, 1.100000000000000089 ) ) ;
#35 = ADVANCED_FACE ( 'NONE', ( #21 ), #64, .F. ) ;
#36 = DIRECTION ( 'NONE',  ( -1.000000000000000000, 0.000000000000000000, -0.000000000000000000 ) ) ;
#37 = CARTESIAN_POINT ( 'NONE',  ( 36.00000000000000000, 25.00000000000000000, 0.000000000000000000 ) ) ;
#38 = CARTESIAN_POINT ( 'NONE',  ( 0.000000000000000000, 25.00000000000000000, 0.000000000000000000 ) ) ;
#39 = VECTOR ( 'NONE', #181, 1000.000000000000000 ) ;
#40 =( LENGTH_UNIT ( ) NAMED_UNIT ( * ) SI_UNIT ( .MILLI., .METRE. ) );
#41 = EDGE_CURVE ( 'NONE', #121, #78, #129, .T. ) ;
#42 = PLANE ( 'NONE',  #14 ) ;
#43 = VECTOR ( 'NONE', #33, 1000.000000000000000 ) ;
#44 = ORIENTED_EDGE ( 'NONE', *, *, #47, .F. ) ;
#45 = ORIENTED_EDGE ( 'NONE', *, *, #69, .F. ) ;
#46 = ORIENTED_EDGE ( 'NONE', *, *, #73, .F. ) ;
#47 = EDGE_CURVE ( 'NONE', #58, #32, #194, .T. ) ;
#48 = EDGE_LOOP ( 'NONE', ( #189, #123, #202, #116 ) ) ;
#49 = VECTOR ( 'NONE', #145, 1000.000000000000000 ) ;
#50 = CARTESIAN_POINT ( 'NONE',  ( 0.000000000000000000, 0.000000000000000000, 0.000000000000000000 ) ) ;
#51 = SURFACE_STYLE_FILL_AREA ( #162 ) ;
#52 = CARTESIAN_POINT ( 'NONE',  ( 0.000000000000000000, 0.000000000000000000, 1.100000000000000089 ) ) ;
#53 = DIRECTION ( 'NONE',  ( -0.000000000000000000, -0.000000000000000000, -1.000000000000000000 ) ) ;
#54 = DIRECTION ( 'NONE',  ( -0.000000000000000000, -0.000000000000000000, -1.000000000000000000 ) ) ;
#55 = VECTOR ( 'NONE', #147, 1000.000000000000000 ) ;
#56 = DIRECTION ( 'NONE',  ( 0.000000000000000000, 0.000000000000000000, -1.000000000000000000 ) ) ;
#57 = MANIFOLD_SOLID_BREP ( 'Í¹Ì¨-À­Éì1', #19 ) ;
#58 = VERTEX_POINT ( 'NONE', #34 ) ;
#59 = PRODUCT_DEFINITION_SHAPE ( 'NONE', 'NONE',  #186 ) ;
#60 = ORIENTED_EDGE ( 'NONE', *, *, #1, .T. ) ;
#61 = ORIENTED_EDGE ( 'NONE', *, *, #69, .T. ) ;
#62 = AXIS2_PLACEMENT_3D ( 'NONE', #176, #168, #36 ) ;
#63 = ORIENTED_EDGE ( 'NONE', *, *, #1, .F. ) ;
#64 = PLANE ( 'NONE',  #62 ) ;
#65 = FACE_OUTER_BOUND ( 'NONE', #74, .T. ) ;
#66 =( NAMED_UNIT ( * ) PLANE_ANGLE_UNIT ( ) SI_UNIT ( $, .RADIAN. ) );
#67 = CARTESIAN_POINT ( 'NONE',  ( 0.000000000000000000, 0.000000000000000000, 1.100000000000000089 ) ) ;
#68 = FILL_AREA_STYLE ('',( #89 ) ) ;
#69 = EDGE_CURVE ( 'NONE', #17, #26, #110, .T. ) ;
#70 = STYLED_ITEM ( 'NONE', ( #133 ), #163 ) ;
#71 = LINE ( 'NONE', #38, #138 ) ;
#72 = APPLICATION_CONTEXT ( 'automotive_design' ) ;
#73 = EDGE_CURVE ( 'NONE', #78, #17, #192, .T. ) ;
#74 = EDGE_LOOP ( 'NONE', ( #13, #188, #45, #46 ) ) ;
#75 = DIRECTION ( 'NONE',  ( 1.000000000000000000, 0.000000000000000000, 0.000000000000000000 ) ) ;
#76 = MECHANICAL_DESIGN_GEOMETRIC_PRESENTATION_REPRESENTATION (  '', ( #70 ), #113 ) ;
#77 = EDGE_LOOP ( 'NONE', ( #102, #191, #3, #27 ) ) ;
#78 = VERTEX_POINT ( 'NONE', #50 ) ;
#79 = DIRECTION ( 'NONE',  ( 0.000000000000000000, -1.000000000000000000, 0.000000000000000000 ) ) ;
#80 = UNCERTAINTY_MEASURE_WITH_UNIT (LENGTH_MEASURE( 1.000000000000000082E-05 ), #40, 'distance_accuracy_value', 'NONE');
#81 = CARTESIAN_POINT ( 'NONE',  ( 36.00000000000000000, 0.000000000000000000, 1.100000000000000089 ) ) ;
#82 = CARTESIAN_POINT ( 'NONE',  ( 36.00000000000000000, 25.00000000000000000, 1.100000000000000089 ) ) ;
#83 = PRESENTATION_STYLE_ASSIGNMENT (( #141 ) ) ;
#84 = PRODUCT_DEFINITION_FORMATION_WITH_SPECIFIED_SOURCE ( 'ÈÎºÎ', '', #4, .NOT_KNOWN. ) ;
#85 = LINE ( 'NONE', #127, #49 ) ;
#86 = EDGE_CURVE ( 'NONE', #32, #154, #166, .T. ) ;
#87 = VECTOR ( 'NONE', #54, 1000.000000000000000 ) ;
#88 =( NAMED_UNIT ( * ) PLANE_ANGLE_UNIT ( ) SI_UNIT ( $, .RADIAN. ) );
#89 = FILL_AREA_STYLE_COLOUR ( '', #132 ) ;
#90 = CARTESIAN_POINT ( 'NONE',  ( 0.000000000000000000, 25.00000000000000000, 1.100000000000000089 ) ) ;
#91 = ORIENTED_EDGE ( 'NONE', *, *, #157, .F. ) ;
#92 = DIRECTION ( 'NONE',  ( 0.000000000000000000, -0.000000000000000000, 1.000000000000000000 ) ) ;
#93 = VECTOR ( 'NONE', #125, 1000.000000000000000 ) ;
#94 = ORIENTED_EDGE ( 'NONE', *, *, #86, .F. ) ;
#95 = CARTESIAN_POINT ( 'NONE',  ( 36.00000000000000000, 0.000000000000000000, 0.000000000000000000 ) ) ;
#96 = VERTEX_POINT ( 'NONE', #167 ) ;
#97 = FILL_AREA_STYLE_COLOUR ( '', #120 ) ;
#98 = DIRECTION ( 'NONE',  ( -1.000000000000000000, -0.000000000000000000, -0.000000000000000000 ) ) ;
#99 = VECTOR ( 'NONE', #53, 1000.000000000000000 ) ;
#100 =( NAMED_UNIT ( * ) PLANE_ANGLE_UNIT ( ) SI_UNIT ( $, .RADIAN. ) );
#101 = PRESENTATION_LAYER_ASSIGNMENT (  '', '', ( #161 ) ) ;
#102 = ORIENTED_EDGE ( 'NONE', *, *, #117, .T. ) ;
#103 = EDGE_LOOP ( 'NONE', ( #119, #91, #94, #60 ) ) ;
#104 = EDGE_CURVE ( 'NONE', #58, #17, #85, .T. ) ;
#105 = CARTESIAN_POINT ( 'NONE',  ( 36.00000000000000000, 25.00000000000000000, 1.100000000000000089 ) ) ;
#106 = ORIENTED_EDGE ( 'NONE', *, *, #128, .F. ) ;
#107 = CARTESIAN_POINT ( 'NONE',  ( 0.000000000000000000, 0.000000000000000000, 0.000000000000000000 ) ) ;
#108 = VECTOR ( 'NONE', #164, 1000.000000000000000 ) ;
#109 = ADVANCED_FACE ( 'NONE', ( #65 ), #196, .T. ) ;
#110 = LINE ( 'NONE', #140, #108 ) ;
#111 = CARTESIAN_POINT ( 'NONE',  ( 36.00000000000000000, 0.000000000000000000, 1.100000000000000089 ) ) ;
#112 = PLANE ( 'NONE',  #148 ) ;
#113 =( GEOMETRIC_REPRESENTATION_CONTEXT ( 3 ) GLOBAL_UNCERTAINTY_ASSIGNED_CONTEXT ( ( #80 ) ) GLOBAL_UNIT_ASSIGNED_CONTEXT ( ( #40, #100, #199 ) ) REPRESENTATION_CONTEXT ( 'NONE', 'WORKASPACE' ) );
#114 = DIRECTION ( 'NONE',  ( -1.000000000000000000, 0.000000000000000000, -0.000000000000000000 ) ) ;
#115 = DIRECTION ( 'NONE',  ( -0.000000000000000000, -0.000000000000000000, -1.000000000000000000 ) ) ;
#116 = ORIENTED_EDGE ( 'NONE', *, *, #128, .T. ) ;
#117 = EDGE_CURVE ( 'NONE', #154, #96, #23, .T. ) ;
#118 = CARTESIAN_POINT ( 'NONE',  ( 0.000000000000000000, 0.000000000000000000, 0.000000000000000000 ) ) ;
#119 = ORIENTED_EDGE ( 'NONE', *, *, #190, .T. ) ;
#120 = COLOUR_RGB ( '',1.000000000000000000, 1.000000000000000000, 1.000000000000000000 ) ;
#121 = VERTEX_POINT ( 'NONE', #134 ) ;
#122 = UNCERTAINTY_MEASURE_WITH_UNIT (LENGTH_MEASURE( 1.000000000000000082E-05 ), #24, 'distance_accuracy_value', 'NONE');
#123 = ORIENTED_EDGE ( 'NONE', *, *, #104, .F. ) ;
#124 =( NAMED_UNIT ( * ) SI_UNIT ( $, .STERADIAN. ) SOLID_ANGLE_UNIT ( ) );
#125 = DIRECTION ( 'NONE',  ( 1.000000000000000000, 0.000000000000000000, 0.000000000000000000 ) ) ;
#126 = VECTOR ( 'NONE', #179, 1000.000000000000000 ) ;
#127 = CARTESIAN_POINT ( 'NONE',  ( 36.00000000000000000, 0.000000000000000000, 1.100000000000000089 ) ) ;
#128 = EDGE_CURVE ( 'NONE', #96, #78, #130, .T. ) ;
#129 = LINE ( 'NONE', #107, #43 ) ;
#130 = LINE ( 'NONE', #52, #99 ) ;
#131 = SURFACE_STYLE_FILL_AREA ( #68 ) ;
#132 = COLOUR_RGB ( '',1.000000000000000000, 1.000000000000000000, 1.000000000000000000 ) ;
#133 = PRESENTATION_STYLE_ASSIGNMENT (( #10 ) ) ;
#134 = CARTESIAN_POINT ( 'NONE',  ( 0.000000000000000000, 25.00000000000000000, 0.000000000000000000 ) ) ;
#135 = CARTESIAN_POINT ( 'NONE',  ( 0.000000000000000000, 0.000000000000000000, 1.100000000000000089 ) ) ;
#136 = AXIS2_PLACEMENT_3D ( 'NONE', #16, #79, #178 ) ;
#137 = EDGE_LOOP ( 'NONE', ( #160, #106, #139, #18 ) ) ;
#138 = VECTOR ( 'NONE', #98, 1000.000000000000000 ) ;
#139 = ORIENTED_EDGE ( 'NONE', *, *, #117, .F. ) ;
#140 = CARTESIAN_POINT ( 'NONE',  ( 36.00000000000000000, 0.000000000000000000, 0.000000000000000000 ) ) ;
#141 = SURFACE_STYLE_USAGE ( .BOTH. , #8 ) ;
#142 = ADVANCED_FACE ( 'NONE', ( #9 ), #112, .F. ) ;
#143 = CARTESIAN_POINT ( 'NONE',  ( 0.000000000000000000, 25.00000000000000000, 1.100000000000000089 ) ) ;
#144 = AXIS2_PLACEMENT_3D ( 'NONE', #118, #156, #75 ) ;
#145 = DIRECTION ( 'NONE',  ( -0.000000000000000000, -0.000000000000000000, -1.000000000000000000 ) ) ;
#146 = APPLICATION_CONTEXT ( 'automotive_design' ) ;
#147 = DIRECTION ( 'NONE',  ( -0.000000000000000000, -1.000000000000000000, -0.000000000000000000 ) ) ;
#148 = AXIS2_PLACEMENT_3D ( 'NONE', #170, #185, #56 ) ;
#149 = FACE_OUTER_BOUND ( 'NONE', #172, .T. ) ;
#150 = CARTESIAN_POINT ( 'NONE',  ( 0.000000000000000000, 0.000000000000000000, 0.000000000000000000 ) ) ;
#151 = ADVANCED_FACE ( 'NONE', ( #149 ), #42, .F. ) ;
#152 = MECHANICAL_DESIGN_GEOMETRIC_PRESENTATION_REPRESENTATION (  '', ( #161 ), #180 ) ;
#153 =( NAMED_UNIT ( * ) SI_UNIT ( $, .STERADIAN. ) SOLID_ANGLE_UNIT ( ) );
#154 = VERTEX_POINT ( 'NONE', #184 ) ;
#155 = FACE_OUTER_BOUND ( 'NONE', #103, .T. ) ;
#156 = DIRECTION ( 'NONE',  ( 0.000000000000000000, 0.000000000000000000, 1.000000000000000000 ) ) ;
#157 = EDGE_CURVE ( 'NONE', #154, #121, #183, .T. ) ;
#158 = PLANE ( 'NONE',  #136 ) ;
#159 = UNCERTAINTY_MEASURE_WITH_UNIT (LENGTH_MEASURE( 1.000000000000000082E-05 ), #5, 'distance_accuracy_value', 'NONE');
#160 = ORIENTED_EDGE ( 'NONE', *, *, #41, .T. ) ;
#161 = STYLED_ITEM ( 'NONE', ( #83 ), #57 ) ;
#162 = FILL_AREA_STYLE ('',( #97 ) ) ;
#163 = ADVANCED_BREP_SHAPE_REPRESENTATION ( 'GDMLPH-510-25x36', ( #57, #144 ), #169 ) ;
#164 = DIRECTION ( 'NONE',  ( 0.000000000000000000, 1.000000000000000000, 0.000000000000000000 ) ) ;
#165 = PRODUCT_RELATED_PRODUCT_CATEGORY ( 'part', '', ( #4 ) ) ;
#166 = LINE ( 'NONE', #143, #39 ) ;
#167 = CARTESIAN_POINT ( 'NONE',  ( 0.000000000000000000, 0.000000000000000000, 1.100000000000000089 ) ) ;
#168 = DIRECTION ( 'NONE',  ( 0.000000000000000000, 0.000000000000000000, -1.000000000000000000 ) ) ;
#169 =( GEOMETRIC_REPRESENTATION_CONTEXT ( 3 ) GLOBAL_UNCERTAINTY_ASSIGNED_CONTEXT ( ( #122 ) ) GLOBAL_UNIT_ASSIGNED_CONTEXT ( ( #24, #88, #153 ) ) REPRESENTATION_CONTEXT ( 'NONE', 'WORKASPACE' ) );
#170 = CARTESIAN_POINT ( 'NONE',  ( 0.000000000000000000, 0.000000000000000000, 1.100000000000000089 ) ) ;
#171 = DIRECTION ( 'NONE',  ( 0.000000000000000000, 0.000000000000000000, 1.000000000000000000 ) ) ;
#172 = EDGE_LOOP ( 'NONE', ( #61, #63, #44, #200 ) ) ;
#173 = SHAPE_DEFINITION_REPRESENTATION ( #59, #163 ) ;
#174 = AXIS2_PLACEMENT_3D ( 'NONE', #150, #182, #114 ) ;
#175 = PLANE ( 'NONE',  #7 ) ;
#176 = CARTESIAN_POINT ( 'NONE',  ( 0.000000000000000000, 0.000000000000000000, 1.100000000000000089 ) ) ;
#177 = PRESENTATION_LAYER_ASSIGNMENT (  '', '', ( #70 ) ) ;
#178 = DIRECTION ( 'NONE',  ( 0.000000000000000000, -0.000000000000000000, -1.000000000000000000 ) ) ;
#179 = DIRECTION ( 'NONE',  ( 1.000000000000000000, 0.000000000000000000, 0.000000000000000000 ) ) ;
#180 =( GEOMETRIC_REPRESENTATION_CONTEXT ( 3 ) GLOBAL_UNCERTAINTY_ASSIGNED_CONTEXT ( ( #159 ) ) GLOBAL_UNIT_ASSIGNED_CONTEXT ( ( #5, #66, #124 ) ) REPRESENTATION_CONTEXT ( 'NONE', 'WORKASPACE' ) );
#181 = DIRECTION ( 'NONE',  ( -1.000000000000000000, -0.000000000000000000, -0.000000000000000000 ) ) ;
#182 = DIRECTION ( 'NONE',  ( 0.000000000000000000, 0.000000000000000000, -1.000000000000000000 ) ) ;
#183 = LINE ( 'NONE', #90, #87 ) ;
#184 = CARTESIAN_POINT ( 'NONE',  ( 0.000000000000000000, 25.00000000000000000, 1.100000000000000089 ) ) ;
#185 = DIRECTION ( 'NONE',  ( 1.000000000000000000, 0.000000000000000000, 0.000000000000000000 ) ) ;
#186 = PRODUCT_DEFINITION ( 'Î´Öª', '', #84, #2 ) ;
#187 = DIRECTION ( 'NONE',  ( 0.000000000000000000, 1.000000000000000000, 0.000000000000000000 ) ) ;
#188 = ORIENTED_EDGE ( 'NONE', *, *, #190, .F. ) ;
#189 = ORIENTED_EDGE ( 'NONE', *, *, #73, .T. ) ;
#190 = EDGE_CURVE ( 'NONE', #26, #121, #71, .T. ) ;
#191 = ORIENTED_EDGE ( 'NONE', *, *, #31, .T. ) ;
#192 = LINE ( 'NONE', #6, #93 ) ;
#193 = CARTESIAN_POINT ( 'NONE',  ( 0.000000000000000000, 0.000000000000000000, 1.100000000000000089 ) ) ;
#194 = LINE ( 'NONE', #81, #30 ) ;
#195 = VECTOR ( 'NONE', #115, 1000.000000000000000 ) ;
#196 = PLANE ( 'NONE',  #174 ) ;
#197 = DIRECTION ( 'NONE',  ( -1.000000000000000000, 0.000000000000000000, 0.000000000000000000 ) ) ;
#198 = SURFACE_SIDE_STYLE ('',( #131 ) ) ;
#199 =( NAMED_UNIT ( * ) SI_UNIT ( $, .STERADIAN. ) SOLID_ANGLE_UNIT ( ) );
#200 = ORIENTED_EDGE ( 'NONE', *, *, #104, .T. ) ;
#201 = APPLICATION_PROTOCOL_DEFINITION ( 'draft international standard', 'automotive_design', 1998, #146 ) ;
#202 = ORIENTED_EDGE ( 'NONE', *, *, #31, .F. ) ;
ENDSEC;
END-ISO-10303-21;
