ISO-10303-21;
HEADER;
FILE_DESCRIPTION (( 'STEP AP214' ),
    '1' );
FILE_NAME ('GDMLPH-700-12x17.STEP',
    '2024-08-13T06:10:21',
    ( 'Windows User' ),
    ( 'P R C' ),
    'SwSTEP 2.0',
    'SolidWorks 2022',
    '' );
FILE_SCHEMA (( 'AUTOMOTIVE_DESIGN' ));
ENDSEC;

DATA;
#1 = STYLED_ITEM ( 'NONE', ( #90 ), #202 ) ;
#2 = ADVANCED_FACE ( 'NONE', ( #20 ), #82, .T. ) ;
#3 = VERTEX_POINT ( 'NONE', #51 ) ;
#4 = ORIENTED_EDGE ( 'NONE', *, *, #121, .F. ) ;
#5 = DIRECTION ( 'NONE',  ( 0.000000000000000000, 0.000000000000000000, -1.000000000000000000 ) ) ;
#6 = FACE_OUTER_BOUND ( 'NONE', #18, .T. ) ;
#7 = APPLICATION_CONTEXT ( 'automotive_design' ) ;
#8 = CLOSED_SHELL ( 'NONE', ( #130, #35, #79, #88, #12, #2 ) ) ;
#9 = CARTESIAN_POINT ( 'NONE',  ( 0.000000000000000000, 12.50000000000000000, 1.100000000000000089 ) ) ;
#10 = DIRECTION ( 'NONE',  ( -1.000000000000000000, -0.000000000000000000, -0.000000000000000000 ) ) ;
#11 = PLANE ( 'NONE',  #47 ) ;
#12 = ADVANCED_FACE ( 'NONE', ( #119 ), #64, .F. ) ;
#13 =( GEOMETRIC_REPRESENTATION_CONTEXT ( 3 ) GLOBAL_UNCERTAINTY_ASSIGNED_CONTEXT ( ( #190 ) ) GLOBAL_UNIT_ASSIGNED_CONTEXT ( ( #147, #109, #173 ) ) REPRESENTATION_CONTEXT ( 'NONE', 'WORKASPACE' ) );
#14 = FACE_OUTER_BOUND ( 'NONE', #80, .T. ) ;
#15 = SURFACE_STYLE_USAGE ( .BOTH. , #91 ) ;
#16 = VECTOR ( 'NONE', #70, 1000.000000000000000 ) ;
#17 = EDGE_CURVE ( 'NONE', #191, #101, #42, .T. ) ;
#18 = EDGE_LOOP ( 'NONE', ( #194, #49, #111, #61 ) ) ;
#19 = ORIENTED_EDGE ( 'NONE', *, *, #126, .F. ) ;
#20 = FACE_OUTER_BOUND ( 'NONE', #150, .T. ) ;
#21 = DIRECTION ( 'NONE',  ( -0.000000000000000000, -0.000000000000000000, -1.000000000000000000 ) ) ;
#22 = PRODUCT_RELATED_PRODUCT_CATEGORY ( 'part', '', ( #110 ) ) ;
#23 = CARTESIAN_POINT ( 'NONE',  ( 17.50000000000000000, 0.000000000000000000, 0.000000000000000000 ) ) ;
#24 = DIRECTION ( 'NONE',  ( 0.000000000000000000, -0.000000000000000000, -1.000000000000000000 ) ) ;
#25 = EDGE_CURVE ( 'NONE', #136, #3, #186, .T. ) ;
#26 = CARTESIAN_POINT ( 'NONE',  ( 0.000000000000000000, 12.50000000000000000, 1.100000000000000089 ) ) ;
#27 = CARTESIAN_POINT ( 'NONE',  ( 17.50000000000000000, 0.000000000000000000, 1.100000000000000089 ) ) ;
#28 = STYLED_ITEM ( 'NONE', ( #38 ), #185 ) ;
#29 = SURFACE_STYLE_FILL_AREA ( #187 ) ;
#30 = PRODUCT_DEFINITION_FORMATION_WITH_SPECIFIED_SOURCE ( 'ÈÎºÎ', '', #110, .NOT_KNOWN. ) ;
#31 = ORIENTED_EDGE ( 'NONE', *, *, #138, .F. ) ;
#32 = VERTEX_POINT ( 'NONE', #72 ) ;
#33 = ORIENTED_EDGE ( 'NONE', *, *, #25, .T. ) ;
#34 = VECTOR ( 'NONE', #10, 1000.000000000000000 ) ;
#35 = ADVANCED_FACE ( 'NONE', ( #6 ), #11, .F. ) ;
#36 = DIRECTION ( 'NONE',  ( 0.000000000000000000, -0.000000000000000000, 1.000000000000000000 ) ) ;
#37 = DIRECTION ( 'NONE',  ( 0.000000000000000000, 0.000000000000000000, 1.000000000000000000 ) ) ;
#38 = PRESENTATION_STYLE_ASSIGNMENT (( #123 ) ) ;
#39 = DIRECTION ( 'NONE',  ( 1.000000000000000000, 0.000000000000000000, 0.000000000000000000 ) ) ;
#40 = CARTESIAN_POINT ( 'NONE',  ( 0.000000000000000000, 0.000000000000000000, 1.100000000000000089 ) ) ;
#41 = AXIS2_PLACEMENT_3D ( 'NONE', #105, #157, #43 ) ;
#42 = LINE ( 'NONE', #54, #112 ) ;
#43 = DIRECTION ( 'NONE',  ( 1.000000000000000000, 0.000000000000000000, 0.000000000000000000 ) ) ;
#44 =( NAMED_UNIT ( * ) SI_UNIT ( $, .STERADIAN. ) SOLID_ANGLE_UNIT ( ) );
#45 = EDGE_CURVE ( 'NONE', #95, #117, #168, .T. ) ;
#46 = AXIS2_PLACEMENT_3D ( 'NONE', #128, #170, #146 ) ;
#47 = AXIS2_PLACEMENT_3D ( 'NONE', #144, #183, #36 ) ;
#48 = ORIENTED_EDGE ( 'NONE', *, *, #96, .F. ) ;
#49 = ORIENTED_EDGE ( 'NONE', *, *, #45, .F. ) ;
#50 = ORIENTED_EDGE ( 'NONE', *, *, #17, .F. ) ;
#51 = CARTESIAN_POINT ( 'NONE',  ( 0.000000000000000000, 12.50000000000000000, 0.000000000000000000 ) ) ;
#52 = DIRECTION ( 'NONE',  ( 0.000000000000000000, -1.000000000000000000, 0.000000000000000000 ) ) ;
#53 = SURFACE_SIDE_STYLE ('',( #120 ) ) ;
#54 = CARTESIAN_POINT ( 'NONE',  ( 0.000000000000000000, 0.000000000000000000, 1.100000000000000089 ) ) ;
#55 = CARTESIAN_POINT ( 'NONE',  ( 0.000000000000000000, 0.000000000000000000, 1.100000000000000089 ) ) ;
#56 = LINE ( 'NONE', #107, #177 ) ;
#57 = CARTESIAN_POINT ( 'NONE',  ( 0.000000000000000000, 12.50000000000000000, 1.100000000000000089 ) ) ;
#58 = APPLICATION_CONTEXT ( 'automotive_design' ) ;
#59 = AXIS2_PLACEMENT_3D ( 'NONE', #122, #68, #37 ) ;
#60 = EDGE_CURVE ( 'NONE', #32, #193, #196, .T. ) ;
#61 = ORIENTED_EDGE ( 'NONE', *, *, #17, .T. ) ;
#62 =( GEOMETRIC_REPRESENTATION_CONTEXT ( 3 ) GLOBAL_UNCERTAINTY_ASSIGNED_CONTEXT ( ( #77 ) ) GLOBAL_UNIT_ASSIGNED_CONTEXT ( ( #161, #189, #44 ) ) REPRESENTATION_CONTEXT ( 'NONE', 'WORKASPACE' ) );
#63 = PRODUCT_DEFINITION_CONTEXT ( 'detailed design', #58, 'design' ) ;
#64 = PLANE ( 'NONE',  #154 ) ;
#65 = EDGE_LOOP ( 'NONE', ( #179, #151, #166, #116 ) ) ;
#66 = ORIENTED_EDGE ( 'NONE', *, *, #74, .T. ) ;
#67 = DIRECTION ( 'NONE',  ( -1.000000000000000000, 0.000000000000000000, -0.000000000000000000 ) ) ;
#68 = DIRECTION ( 'NONE',  ( -1.000000000000000000, 0.000000000000000000, 0.000000000000000000 ) ) ;
#69 = VECTOR ( 'NONE', #184, 1000.000000000000000 ) ;
#70 = DIRECTION ( 'NONE',  ( -0.000000000000000000, -0.000000000000000000, -1.000000000000000000 ) ) ;
#71 = CARTESIAN_POINT ( 'NONE',  ( 0.000000000000000000, 0.000000000000000000, 0.000000000000000000 ) ) ;
#72 = CARTESIAN_POINT ( 'NONE',  ( 17.50000000000000000, 12.50000000000000000, 1.100000000000000089 ) ) ;
#73 = DIRECTION ( 'NONE',  ( 1.000000000000000000, 0.000000000000000000, 0.000000000000000000 ) ) ;
#74 = EDGE_CURVE ( 'NONE', #117, #193, #56, .T. ) ;
#75 = PRESENTATION_LAYER_ASSIGNMENT (  '', '', ( #1 ) ) ;
#76 = ORIENTED_EDGE ( 'NONE', *, *, #162, .F. ) ;
#77 = UNCERTAINTY_MEASURE_WITH_UNIT (LENGTH_MEASURE( 1.000000000000000082E-05 ), #161, 'distance_accuracy_value', 'NONE');
#78 = ORIENTED_EDGE ( 'NONE', *, *, #96, .T. ) ;
#79 = ADVANCED_FACE ( 'NONE', ( #100 ), #83, .F. ) ;
#80 = EDGE_LOOP ( 'NONE', ( #78, #50, #76, #33 ) ) ;
#81 = FILL_AREA_STYLE ('',( #99 ) ) ;
#82 = PLANE ( 'NONE',  #192 ) ;
#83 = PLANE ( 'NONE',  #59 ) ;
#84 = CARTESIAN_POINT ( 'NONE',  ( 0.000000000000000000, 0.000000000000000000, 0.000000000000000000 ) ) ;
#85 = CARTESIAN_POINT ( 'NONE',  ( 0.000000000000000000, 12.50000000000000000, 0.000000000000000000 ) ) ;
#86 = FACE_OUTER_BOUND ( 'NONE', #98, .T. ) ;
#87 = DIRECTION ( 'NONE',  ( 0.000000000000000000, 1.000000000000000000, 0.000000000000000000 ) ) ;
#88 = ADVANCED_FACE ( 'NONE', ( #86 ), #127, .F. ) ;
#89 =( NAMED_UNIT ( * ) SI_UNIT ( $, .STERADIAN. ) SOLID_ANGLE_UNIT ( ) );
#90 = PRESENTATION_STYLE_ASSIGNMENT (( #15 ) ) ;
#91 = SURFACE_SIDE_STYLE ('',( #29 ) ) ;
#92 = CARTESIAN_POINT ( 'NONE',  ( 17.50000000000000000, 12.50000000000000000, 0.000000000000000000 ) ) ;
#93 = PRODUCT_DEFINITION ( 'Î´Öª', '', #30, #63 ) ;
#94 = VECTOR ( 'NONE', #87, 1000.000000000000000 ) ;
#95 = VERTEX_POINT ( 'NONE', #27 ) ;
#96 = EDGE_CURVE ( 'NONE', #3, #101, #102, .T. ) ;
#97 = ORIENTED_EDGE ( 'NONE', *, *, #174, .T. ) ;
#98 = EDGE_LOOP ( 'NONE', ( #97, #137, #31, #135 ) ) ;
#99 = FILL_AREA_STYLE_COLOUR ( '', #118 ) ;
#100 = FACE_OUTER_BOUND ( 'NONE', #178, .T. ) ;
#101 = VERTEX_POINT ( 'NONE', #139 ) ;
#102 = LINE ( 'NONE', #71, #69 ) ;
#103 = LINE ( 'NONE', #55, #149 ) ;
#104 = VECTOR ( 'NONE', #21, 1000.000000000000000 ) ;
#105 = CARTESIAN_POINT ( 'NONE',  ( 0.000000000000000000, 0.000000000000000000, 0.000000000000000000 ) ) ;
#106 = CARTESIAN_POINT ( 'NONE',  ( 17.50000000000000000, 12.50000000000000000, 1.100000000000000089 ) ) ;
#107 = CARTESIAN_POINT ( 'NONE',  ( 17.50000000000000000, 0.000000000000000000, 0.000000000000000000 ) ) ;
#108 = APPLICATION_PROTOCOL_DEFINITION ( 'draft international standard', 'automotive_design', 1998, #58 ) ;
#109 =( NAMED_UNIT ( * ) PLANE_ANGLE_UNIT ( ) SI_UNIT ( $, .RADIAN. ) );
#110 = PRODUCT ( 'GDMLPH-700-12x17', 'GDMLPH-700-12x17', '', ( #160 ) ) ;
#111 = ORIENTED_EDGE ( 'NONE', *, *, #143, .F. ) ;
#112 = VECTOR ( 'NONE', #153, 1000.000000000000000 ) ;
#113 = ORIENTED_EDGE ( 'NONE', *, *, #60, .F. ) ;
#114 =( GEOMETRIC_REPRESENTATION_CONTEXT ( 3 ) GLOBAL_UNCERTAINTY_ASSIGNED_CONTEXT ( ( #133 ) ) GLOBAL_UNIT_ASSIGNED_CONTEXT ( ( #115, #200, #89 ) ) REPRESENTATION_CONTEXT ( 'NONE', 'WORKASPACE' ) );
#115 =( LENGTH_UNIT ( ) NAMED_UNIT ( * ) SI_UNIT ( .MILLI., .METRE. ) );
#116 = ORIENTED_EDGE ( 'NONE', *, *, #138, .T. ) ;
#117 = VERTEX_POINT ( 'NONE', #23 ) ;
#118 = COLOUR_RGB ( '',1.000000000000000000, 1.000000000000000000, 1.000000000000000000 ) ;
#119 = FACE_OUTER_BOUND ( 'NONE', #65, .T. ) ;
#120 = SURFACE_STYLE_FILL_AREA ( #81 ) ;
#121 = EDGE_CURVE ( 'NONE', #95, #32, #142, .T. ) ;
#122 = CARTESIAN_POINT ( 'NONE',  ( 17.50000000000000000, 0.000000000000000000, 1.100000000000000089 ) ) ;
#123 = SURFACE_STYLE_USAGE ( .BOTH. , #53 ) ;
#124 = CARTESIAN_POINT ( 'NONE',  ( 0.000000000000000000, 0.000000000000000000, 1.100000000000000089 ) ) ;
#125 = DIRECTION ( 'NONE',  ( -0.000000000000000000, -1.000000000000000000, -0.000000000000000000 ) ) ;
#126 = EDGE_CURVE ( 'NONE', #101, #117, #159, .T. ) ;
#127 = PLANE ( 'NONE',  #134 ) ;
#128 = CARTESIAN_POINT ( 'NONE',  ( 0.000000000000000000, 0.000000000000000000, 1.100000000000000089 ) ) ;
#129 = VECTOR ( 'NONE', #73, 1000.000000000000000 ) ;
#130 = ADVANCED_FACE ( 'NONE', ( #14 ), #156, .F. ) ;
#131 = ORIENTED_EDGE ( 'NONE', *, *, #174, .F. ) ;
#132 = VECTOR ( 'NONE', #141, 1000.000000000000000 ) ;
#133 = UNCERTAINTY_MEASURE_WITH_UNIT (LENGTH_MEASURE( 1.000000000000000082E-05 ), #115, 'distance_accuracy_value', 'NONE');
#134 = AXIS2_PLACEMENT_3D ( 'NONE', #26, #52, #24 ) ;
#135 = ORIENTED_EDGE ( 'NONE', *, *, #60, .T. ) ;
#136 = VERTEX_POINT ( 'NONE', #57 ) ;
#137 = ORIENTED_EDGE ( 'NONE', *, *, #25, .F. ) ;
#138 = EDGE_CURVE ( 'NONE', #32, #136, #155, .T. ) ;
#139 = CARTESIAN_POINT ( 'NONE',  ( 0.000000000000000000, 0.000000000000000000, 0.000000000000000000 ) ) ;
#140 = APPLICATION_PROTOCOL_DEFINITION ( 'draft international standard', 'automotive_design', 1998, #7 ) ;
#141 = DIRECTION ( 'NONE',  ( -1.000000000000000000, -0.000000000000000000, -0.000000000000000000 ) ) ;
#142 = LINE ( 'NONE', #167, #94 ) ;
#143 = EDGE_CURVE ( 'NONE', #191, #95, #197, .T. ) ;
#144 = CARTESIAN_POINT ( 'NONE',  ( 0.000000000000000000, 0.000000000000000000, 1.100000000000000089 ) ) ;
#145 = MECHANICAL_DESIGN_GEOMETRIC_PRESENTATION_REPRESENTATION (  '', ( #1 ), #13 ) ;
#146 = DIRECTION ( 'NONE',  ( 0.000000000000000000, 0.000000000000000000, -1.000000000000000000 ) ) ;
#147 =( LENGTH_UNIT ( ) NAMED_UNIT ( * ) SI_UNIT ( .MILLI., .METRE. ) );
#148 = FILL_AREA_STYLE_COLOUR ( '', #180 ) ;
#149 = VECTOR ( 'NONE', #125, 1000.000000000000000 ) ;
#150 = EDGE_LOOP ( 'NONE', ( #48, #131, #163, #19 ) ) ;
#151 = ORIENTED_EDGE ( 'NONE', *, *, #143, .T. ) ;
#152 = CARTESIAN_POINT ( 'NONE',  ( 0.000000000000000000, 0.000000000000000000, 0.000000000000000000 ) ) ;
#153 = DIRECTION ( 'NONE',  ( -0.000000000000000000, -0.000000000000000000, -1.000000000000000000 ) ) ;
#154 = AXIS2_PLACEMENT_3D ( 'NONE', #181, #158, #198 ) ;
#155 = LINE ( 'NONE', #9, #132 ) ;
#156 = PLANE ( 'NONE',  #46 ) ;
#157 = DIRECTION ( 'NONE',  ( 0.000000000000000000, 0.000000000000000000, 1.000000000000000000 ) ) ;
#158 = DIRECTION ( 'NONE',  ( 0.000000000000000000, 0.000000000000000000, -1.000000000000000000 ) ) ;
#159 = LINE ( 'NONE', #84, #129 ) ;
#160 = PRODUCT_CONTEXT ( 'NONE', #7, 'mechanical' ) ;
#161 =( LENGTH_UNIT ( ) NAMED_UNIT ( * ) SI_UNIT ( .MILLI., .METRE. ) );
#162 = EDGE_CURVE ( 'NONE', #136, #191, #103, .T. ) ;
#163 = ORIENTED_EDGE ( 'NONE', *, *, #74, .F. ) ;
#164 = ORIENTED_EDGE ( 'NONE', *, *, #45, .T. ) ;
#165 = VECTOR ( 'NONE', #39, 1000.000000000000000 ) ;
#166 = ORIENTED_EDGE ( 'NONE', *, *, #121, .T. ) ;
#167 = CARTESIAN_POINT ( 'NONE',  ( 17.50000000000000000, 0.000000000000000000, 1.100000000000000089 ) ) ;
#168 = LINE ( 'NONE', #201, #16 ) ;
#169 = LINE ( 'NONE', #85, #34 ) ;
#170 = DIRECTION ( 'NONE',  ( 1.000000000000000000, 0.000000000000000000, 0.000000000000000000 ) ) ;
#171 = DIRECTION ( 'NONE',  ( 0.000000000000000000, 1.000000000000000000, 0.000000000000000000 ) ) ;
#172 = SHAPE_DEFINITION_REPRESENTATION ( #176, #185 ) ;
#173 =( NAMED_UNIT ( * ) SI_UNIT ( $, .STERADIAN. ) SOLID_ANGLE_UNIT ( ) );
#174 = EDGE_CURVE ( 'NONE', #193, #3, #169, .T. ) ;
#175 = PRESENTATION_LAYER_ASSIGNMENT (  '', '', ( #28 ) ) ;
#176 = PRODUCT_DEFINITION_SHAPE ( 'NONE', 'NONE',  #93 ) ;
#177 = VECTOR ( 'NONE', #171, 1000.000000000000000 ) ;
#178 = EDGE_LOOP ( 'NONE', ( #66, #113, #4, #164 ) ) ;
#179 = ORIENTED_EDGE ( 'NONE', *, *, #162, .T. ) ;
#180 = COLOUR_RGB ( '',1.000000000000000000, 1.000000000000000000, 1.000000000000000000 ) ;
#181 = CARTESIAN_POINT ( 'NONE',  ( 0.000000000000000000, 0.000000000000000000, 1.100000000000000089 ) ) ;
#182 = CARTESIAN_POINT ( 'NONE',  ( 0.000000000000000000, 12.50000000000000000, 1.100000000000000089 ) ) ;
#183 = DIRECTION ( 'NONE',  ( 0.000000000000000000, 1.000000000000000000, 0.000000000000000000 ) ) ;
#184 = DIRECTION ( 'NONE',  ( -0.000000000000000000, -1.000000000000000000, -0.000000000000000000 ) ) ;
#185 = ADVANCED_BREP_SHAPE_REPRESENTATION ( 'GDMLPH-700-12x17', ( #202, #41 ), #62 ) ;
#186 = LINE ( 'NONE', #182, #104 ) ;
#187 = FILL_AREA_STYLE ('',( #148 ) ) ;
#188 = VECTOR ( 'NONE', #199, 1000.000000000000000 ) ;
#189 =( NAMED_UNIT ( * ) PLANE_ANGLE_UNIT ( ) SI_UNIT ( $, .RADIAN. ) );
#190 = UNCERTAINTY_MEASURE_WITH_UNIT (LENGTH_MEASURE( 1.000000000000000082E-05 ), #147, 'distance_accuracy_value', 'NONE');
#191 = VERTEX_POINT ( 'NONE', #40 ) ;
#192 = AXIS2_PLACEMENT_3D ( 'NONE', #152, #5, #67 ) ;
#193 = VERTEX_POINT ( 'NONE', #92 ) ;
#194 = ORIENTED_EDGE ( 'NONE', *, *, #126, .T. ) ;
#195 = MECHANICAL_DESIGN_GEOMETRIC_PRESENTATION_REPRESENTATION (  '', ( #28 ), #114 ) ;
#196 = LINE ( 'NONE', #106, #188 ) ;
#197 = LINE ( 'NONE', #124, #165 ) ;
#198 = DIRECTION ( 'NONE',  ( -1.000000000000000000, 0.000000000000000000, -0.000000000000000000 ) ) ;
#199 = DIRECTION ( 'NONE',  ( -0.000000000000000000, -0.000000000000000000, -1.000000000000000000 ) ) ;
#200 =( NAMED_UNIT ( * ) PLANE_ANGLE_UNIT ( ) SI_UNIT ( $, .RADIAN. ) );
#201 = CARTESIAN_POINT ( 'NONE',  ( 17.50000000000000000, 0.000000000000000000, 1.100000000000000089 ) ) ;
#202 = MANIFOLD_SOLID_BREP ( 'Í¹Ì¨-À­Éì1', #8 ) ;
ENDSEC;
END-ISO-10303-21;
