ISO-10303-21;
HEADER;
FILE_DESCRIPTION (( 'STEP AP214' ),
    '1' );
FILE_NAME ('GDMLPH-660-12x17.STEP',
    '2024-08-13T06:09:59',
    ( 'Windows User' ),
    ( 'P R C' ),
    'SwSTEP 2.0',
    'SolidWorks 2022',
    '' );
FILE_SCHEMA (( 'AUTOMOTIVE_DESIGN' ));
ENDSEC;

DATA;
#1 =( GEOMETRIC_REPRESENTATION_CONTEXT ( 3 ) GLOBAL_UNCERTAINTY_ASSIGNED_CONTEXT ( ( #74 ) ) GLOBAL_UNIT_ASSIGNED_CONTEXT ( ( #174, #194, #89 ) ) REPRESENTATION_CONTEXT ( 'NONE', 'WORKASPACE' ) );
#2 = VERTEX_POINT ( 'NONE', #130 ) ;
#3 = EDGE_CURVE ( 'NONE', #156, #157, #32, .T. ) ;
#4 = AXIS2_PLACEMENT_3D ( 'NONE', #9, #132, #50 ) ;
#5 = ORIENTED_EDGE ( 'NONE', *, *, #138, .T. ) ;
#6 = FILL_AREA_STYLE_COLOUR ( '', #19 ) ;
#7 = PLANE ( 'NONE',  #87 ) ;
#8 = CARTESIAN_POINT ( 'NONE',  ( 0.000000000000000000, 0.000000000000000000, 0.000000000000000000 ) ) ;
#9 = CARTESIAN_POINT ( 'NONE',  ( 0.000000000000000000, 0.000000000000000000, 0.000000000000000000 ) ) ;
#10 = FACE_OUTER_BOUND ( 'NONE', #56, .T. ) ;
#11 = DIRECTION ( 'NONE',  ( -0.000000000000000000, -1.000000000000000000, -0.000000000000000000 ) ) ;
#12 = FACE_OUTER_BOUND ( 'NONE', #25, .T. ) ;
#13 = PRODUCT_DEFINITION_SHAPE ( 'NONE', 'NONE',  #168 ) ;
#14 = PRODUCT_DEFINITION_CONTEXT ( 'detailed design', #18, 'design' ) ;
#15 = EDGE_LOOP ( 'NONE', ( #151, #41, #128, #79 ) ) ;
#16 = ORIENTED_EDGE ( 'NONE', *, *, #183, .T. ) ;
#17 = ORIENTED_EDGE ( 'NONE', *, *, #138, .F. ) ;
#18 = APPLICATION_CONTEXT ( 'automotive_design' ) ;
#19 = COLOUR_RGB ( '',1.000000000000000000, 1.000000000000000000, 1.000000000000000000 ) ;
#20 = CARTESIAN_POINT ( 'NONE',  ( 0.000000000000000000, 0.000000000000000000, 1.100000000000000089 ) ) ;
#21 = ADVANCED_BREP_SHAPE_REPRESENTATION ( 'GDMLPH-660-12x17', ( #122, #127 ), #142 ) ;
#22 = ORIENTED_EDGE ( 'NONE', *, *, #63, .F. ) ;
#23 =( NAMED_UNIT ( * ) SI_UNIT ( $, .STERADIAN. ) SOLID_ANGLE_UNIT ( ) );
#24 = LINE ( 'NONE', #162, #92 ) ;
#25 = EDGE_LOOP ( 'NONE', ( #179, #93, #17, #16 ) ) ;
#26 = AXIS2_PLACEMENT_3D ( 'NONE', #36, #53, #33 ) ;
#27 = DIRECTION ( 'NONE',  ( 0.000000000000000000, 0.000000000000000000, -1.000000000000000000 ) ) ;
#28 = VECTOR ( 'NONE', #135, 1000.000000000000000 ) ;
#29 = EDGE_CURVE ( 'NONE', #30, #163, #126, .T. ) ;
#30 = VERTEX_POINT ( 'NONE', #42 ) ;
#31 = LINE ( 'NONE', #81, #198 ) ;
#32 = LINE ( 'NONE', #38, #57 ) ;
#33 = DIRECTION ( 'NONE',  ( 0.000000000000000000, -0.000000000000000000, -1.000000000000000000 ) ) ;
#34 = PLANE ( 'NONE',  #118 ) ;
#35 = ORIENTED_EDGE ( 'NONE', *, *, #90, .T. ) ;
#36 = CARTESIAN_POINT ( 'NONE',  ( 0.000000000000000000, 12.50000000000000000, 1.100000000000000089 ) ) ;
#37 = APPLICATION_CONTEXT ( 'automotive_design' ) ;
#38 = CARTESIAN_POINT ( 'NONE',  ( 17.50000000000000000, 0.000000000000000000, 0.000000000000000000 ) ) ;
#39 = VERTEX_POINT ( 'NONE', #100 ) ;
#40 = CLOSED_SHELL ( 'NONE', ( #91, #200, #107, #129, #188, #44 ) ) ;
#41 = ORIENTED_EDGE ( 'NONE', *, *, #183, .F. ) ;
#42 = CARTESIAN_POINT ( 'NONE',  ( 0.000000000000000000, 12.50000000000000000, 0.000000000000000000 ) ) ;
#43 = DIRECTION ( 'NONE',  ( -1.000000000000000000, -0.000000000000000000, -0.000000000000000000 ) ) ;
#44 = ADVANCED_FACE ( 'NONE', ( #67 ), #95, .T. ) ;
#45 = LINE ( 'NONE', #175, #78 ) ;
#46 = EDGE_CURVE ( 'NONE', #109, #30, #143, .T. ) ;
#47 = CARTESIAN_POINT ( 'NONE',  ( 0.000000000000000000, 0.000000000000000000, 1.100000000000000089 ) ) ;
#48 = ORIENTED_EDGE ( 'NONE', *, *, #121, .T. ) ;
#49 = FACE_OUTER_BOUND ( 'NONE', #191, .T. ) ;
#50 = DIRECTION ( 'NONE',  ( -1.000000000000000000, 0.000000000000000000, -0.000000000000000000 ) ) ;
#51 = SURFACE_STYLE_USAGE ( .BOTH. , #134 ) ;
#52 = AXIS2_PLACEMENT_3D ( 'NONE', #85, #195, #190 ) ;
#53 = DIRECTION ( 'NONE',  ( 0.000000000000000000, -1.000000000000000000, 0.000000000000000000 ) ) ;
#54 = PRESENTATION_LAYER_ASSIGNMENT (  '', '', ( #108 ) ) ;
#55 = PRODUCT ( 'GDMLPH-660-12x17', 'GDMLPH-660-12x17', '', ( #169 ) ) ;
#56 = EDGE_LOOP ( 'NONE', ( #104, #106, #35, #5 ) ) ;
#57 = VECTOR ( 'NONE', #125, 1000.000000000000000 ) ;
#58 = VERTEX_POINT ( 'NONE', #20 ) ;
#59 = VECTOR ( 'NONE', #149, 1000.000000000000000 ) ;
#60 = MECHANICAL_DESIGN_GEOMETRIC_PRESENTATION_REPRESENTATION (  '', ( #108 ), #184 ) ;
#61 = CARTESIAN_POINT ( 'NONE',  ( 0.000000000000000000, 12.50000000000000000, 1.100000000000000089 ) ) ;
#62 =( NAMED_UNIT ( * ) PLANE_ANGLE_UNIT ( ) SI_UNIT ( $, .RADIAN. ) );
#63 = EDGE_CURVE ( 'NONE', #58, #39, #192, .T. ) ;
#64 = DIRECTION ( 'NONE',  ( 1.000000000000000000, 0.000000000000000000, 0.000000000000000000 ) ) ;
#65 = EDGE_LOOP ( 'NONE', ( #140, #116, #189, #139 ) ) ;
#66 = LINE ( 'NONE', #101, #80 ) ;
#67 = FACE_OUTER_BOUND ( 'NONE', #65, .T. ) ;
#68 = FILL_AREA_STYLE ('',( #6 ) ) ;
#69 = CARTESIAN_POINT ( 'NONE',  ( 0.000000000000000000, 0.000000000000000000, 1.100000000000000089 ) ) ;
#70 = MECHANICAL_DESIGN_GEOMETRIC_PRESENTATION_REPRESENTATION (  '', ( #136 ), #1 ) ;
#71 =( NAMED_UNIT ( * ) PLANE_ANGLE_UNIT ( ) SI_UNIT ( $, .RADIAN. ) );
#72 = EDGE_CURVE ( 'NONE', #157, #30, #45, .T. ) ;
#73 = DIRECTION ( 'NONE',  ( 1.000000000000000000, 0.000000000000000000, 0.000000000000000000 ) ) ;
#74 = UNCERTAINTY_MEASURE_WITH_UNIT (LENGTH_MEASURE( 1.000000000000000082E-05 ), #174, 'distance_accuracy_value', 'NONE');
#75 = ORIENTED_EDGE ( 'NONE', *, *, #103, .T. ) ;
#76 = ORIENTED_EDGE ( 'NONE', *, *, #103, .F. ) ;
#77 = ORIENTED_EDGE ( 'NONE', *, *, #46, .T. ) ;
#78 = VECTOR ( 'NONE', #193, 1000.000000000000000 ) ;
#79 = ORIENTED_EDGE ( 'NONE', *, *, #160, .T. ) ;
#80 = VECTOR ( 'NONE', #43, 1000.000000000000000 ) ;
#81 = CARTESIAN_POINT ( 'NONE',  ( 0.000000000000000000, 0.000000000000000000, 0.000000000000000000 ) ) ;
#82 = DIRECTION ( 'NONE',  ( -1.000000000000000000, 0.000000000000000000, -0.000000000000000000 ) ) ;
#83 = FACE_OUTER_BOUND ( 'NONE', #15, .T. ) ;
#84 = SURFACE_SIDE_STYLE ('',( #165 ) ) ;
#85 = CARTESIAN_POINT ( 'NONE',  ( 17.50000000000000000, 0.000000000000000000, 1.100000000000000089 ) ) ;
#86 = LINE ( 'NONE', #131, #164 ) ;
#87 = AXIS2_PLACEMENT_3D ( 'NONE', #47, #152, #199 ) ;
#88 = DIRECTION ( 'NONE',  ( -0.000000000000000000, -0.000000000000000000, -1.000000000000000000 ) ) ;
#89 =( NAMED_UNIT ( * ) SI_UNIT ( $, .STERADIAN. ) SOLID_ANGLE_UNIT ( ) );
#90 = EDGE_CURVE ( 'NONE', #39, #2, #110, .T. ) ;
#91 = ADVANCED_FACE ( 'NONE', ( #98 ), #34, .F. ) ;
#92 = VECTOR ( 'NONE', #88, 1000.000000000000000 ) ;
#93 = ORIENTED_EDGE ( 'NONE', *, *, #46, .F. ) ;
#94 = DIRECTION ( 'NONE',  ( 1.000000000000000000, 0.000000000000000000, 0.000000000000000000 ) ) ;
#95 = PLANE ( 'NONE',  #4 ) ;
#96 = PLANE ( 'NONE',  #171 ) ;
#97 = CARTESIAN_POINT ( 'NONE',  ( 17.50000000000000000, 0.000000000000000000, 1.100000000000000089 ) ) ;
#98 = FACE_OUTER_BOUND ( 'NONE', #155, .T. ) ;
#99 = DIRECTION ( 'NONE',  ( 0.000000000000000000, 0.000000000000000000, -1.000000000000000000 ) ) ;
#100 = CARTESIAN_POINT ( 'NONE',  ( 17.50000000000000000, 0.000000000000000000, 1.100000000000000089 ) ) ;
#101 = CARTESIAN_POINT ( 'NONE',  ( 0.000000000000000000, 12.50000000000000000, 1.100000000000000089 ) ) ;
#102 = LINE ( 'NONE', #133, #124 ) ;
#103 = EDGE_CURVE ( 'NONE', #58, #163, #24, .T. ) ;
#104 = ORIENTED_EDGE ( 'NONE', *, *, #146, .T. ) ;
#105 = VECTOR ( 'NONE', #114, 1000.000000000000000 ) ;
#106 = ORIENTED_EDGE ( 'NONE', *, *, #63, .T. ) ;
#107 = ADVANCED_FACE ( 'NONE', ( #83 ), #147, .F. ) ;
#108 = STYLED_ITEM ( 'NONE', ( #178 ), #21 ) ;
#109 = VERTEX_POINT ( 'NONE', #172 ) ;
#110 = LINE ( 'NONE', #97, #180 ) ;
#111 = DIRECTION ( 'NONE',  ( -0.000000000000000000, -1.000000000000000000, -0.000000000000000000 ) ) ;
#112 = ORIENTED_EDGE ( 'NONE', *, *, #160, .F. ) ;
#113 = CARTESIAN_POINT ( 'NONE',  ( 17.50000000000000000, 0.000000000000000000, 0.000000000000000000 ) ) ;
#114 = DIRECTION ( 'NONE',  ( -0.000000000000000000, -0.000000000000000000, -1.000000000000000000 ) ) ;
#115 = FILL_AREA_STYLE ('',( #181 ) ) ;
#116 = ORIENTED_EDGE ( 'NONE', *, *, #72, .F. ) ;
#117 = APPLICATION_PROTOCOL_DEFINITION ( 'draft international standard', 'automotive_design', 1998, #37 ) ;
#118 = AXIS2_PLACEMENT_3D ( 'NONE', #161, #64, #27 ) ;
#119 = PRESENTATION_STYLE_ASSIGNMENT (( #51 ) ) ;
#120 = CARTESIAN_POINT ( 'NONE',  ( 17.50000000000000000, 12.50000000000000000, 0.000000000000000000 ) ) ;
#121 = EDGE_CURVE ( 'NONE', #163, #156, #31, .T. ) ;
#122 = MANIFOLD_SOLID_BREP ( 'Í¹Ì¨-À­Éì1', #40 ) ;
#123 =( NAMED_UNIT ( * ) SI_UNIT ( $, .STERADIAN. ) SOLID_ANGLE_UNIT ( ) );
#124 = VECTOR ( 'NONE', #111, 1000.000000000000000 ) ;
#125 = DIRECTION ( 'NONE',  ( 0.000000000000000000, 1.000000000000000000, 0.000000000000000000 ) ) ;
#126 = LINE ( 'NONE', #8, #141 ) ;
#127 = AXIS2_PLACEMENT_3D ( 'NONE', #187, #137, #73 ) ;
#128 = ORIENTED_EDGE ( 'NONE', *, *, #90, .F. ) ;
#129 = ADVANCED_FACE ( 'NONE', ( #12 ), #144, .F. ) ;
#130 = CARTESIAN_POINT ( 'NONE',  ( 17.50000000000000000, 12.50000000000000000, 1.100000000000000089 ) ) ;
#131 = CARTESIAN_POINT ( 'NONE',  ( 17.50000000000000000, 0.000000000000000000, 1.100000000000000089 ) ) ;
#132 = DIRECTION ( 'NONE',  ( 0.000000000000000000, 0.000000000000000000, -1.000000000000000000 ) ) ;
#133 = CARTESIAN_POINT ( 'NONE',  ( 0.000000000000000000, 0.000000000000000000, 1.100000000000000089 ) ) ;
#134 = SURFACE_SIDE_STYLE ('',( #197 ) ) ;
#135 = DIRECTION ( 'NONE',  ( -0.000000000000000000, -0.000000000000000000, -1.000000000000000000 ) ) ;
#136 = STYLED_ITEM ( 'NONE', ( #119 ), #122 ) ;
#137 = DIRECTION ( 'NONE',  ( 0.000000000000000000, 0.000000000000000000, 1.000000000000000000 ) ) ;
#138 = EDGE_CURVE ( 'NONE', #2, #109, #66, .T. ) ;
#139 = ORIENTED_EDGE ( 'NONE', *, *, #121, .F. ) ;
#140 = ORIENTED_EDGE ( 'NONE', *, *, #29, .F. ) ;
#141 = VECTOR ( 'NONE', #11, 1000.000000000000000 ) ;
#142 =( GEOMETRIC_REPRESENTATION_CONTEXT ( 3 ) GLOBAL_UNCERTAINTY_ASSIGNED_CONTEXT ( ( #154 ) ) GLOBAL_UNIT_ASSIGNED_CONTEXT ( ( #196, #62, #23 ) ) REPRESENTATION_CONTEXT ( 'NONE', 'WORKASPACE' ) );
#143 = LINE ( 'NONE', #61, #105 ) ;
#144 = PLANE ( 'NONE',  #26 ) ;
#145 = CARTESIAN_POINT ( 'NONE',  ( 0.000000000000000000, 0.000000000000000000, 0.000000000000000000 ) ) ;
#146 = EDGE_CURVE ( 'NONE', #109, #58, #102, .T. ) ;
#147 = PLANE ( 'NONE',  #52 ) ;
#148 = SURFACE_STYLE_USAGE ( .BOTH. , #84 ) ;
#149 = DIRECTION ( 'NONE',  ( 1.000000000000000000, 0.000000000000000000, 0.000000000000000000 ) ) ;
#150 = DIRECTION ( 'NONE',  ( -0.000000000000000000, -0.000000000000000000, -1.000000000000000000 ) ) ;
#151 = ORIENTED_EDGE ( 'NONE', *, *, #3, .T. ) ;
#152 = DIRECTION ( 'NONE',  ( 0.000000000000000000, 1.000000000000000000, 0.000000000000000000 ) ) ;
#153 = COLOUR_RGB ( '',1.000000000000000000, 1.000000000000000000, 1.000000000000000000 ) ;
#154 = UNCERTAINTY_MEASURE_WITH_UNIT (LENGTH_MEASURE( 1.000000000000000082E-05 ), #196, 'distance_accuracy_value', 'NONE');
#155 = EDGE_LOOP ( 'NONE', ( #173, #76, #186, #77 ) ) ;
#156 = VERTEX_POINT ( 'NONE', #113 ) ;
#157 = VERTEX_POINT ( 'NONE', #120 ) ;
#158 = PRESENTATION_LAYER_ASSIGNMENT (  '', '', ( #136 ) ) ;
#159 = CARTESIAN_POINT ( 'NONE',  ( 0.000000000000000000, 0.000000000000000000, 1.100000000000000089 ) ) ;
#160 = EDGE_CURVE ( 'NONE', #39, #156, #86, .T. ) ;
#161 = CARTESIAN_POINT ( 'NONE',  ( 0.000000000000000000, 0.000000000000000000, 1.100000000000000089 ) ) ;
#162 = CARTESIAN_POINT ( 'NONE',  ( 0.000000000000000000, 0.000000000000000000, 1.100000000000000089 ) ) ;
#163 = VERTEX_POINT ( 'NONE', #145 ) ;
#164 = VECTOR ( 'NONE', #150, 1000.000000000000000 ) ;
#165 = SURFACE_STYLE_FILL_AREA ( #115 ) ;
#166 = LINE ( 'NONE', #176, #28 ) ;
#167 = PRODUCT_RELATED_PRODUCT_CATEGORY ( 'part', '', ( #55 ) ) ;
#168 = PRODUCT_DEFINITION ( 'Î´Öª', '', #202, #14 ) ;
#169 = PRODUCT_CONTEXT ( 'NONE', #37, 'mechanical' ) ;
#170 = SHAPE_DEFINITION_REPRESENTATION ( #13, #21 ) ;
#171 = AXIS2_PLACEMENT_3D ( 'NONE', #69, #99, #82 ) ;
#172 = CARTESIAN_POINT ( 'NONE',  ( 0.000000000000000000, 12.50000000000000000, 1.100000000000000089 ) ) ;
#173 = ORIENTED_EDGE ( 'NONE', *, *, #29, .T. ) ;
#174 =( LENGTH_UNIT ( ) NAMED_UNIT ( * ) SI_UNIT ( .MILLI., .METRE. ) );
#175 = CARTESIAN_POINT ( 'NONE',  ( 0.000000000000000000, 12.50000000000000000, 0.000000000000000000 ) ) ;
#176 = CARTESIAN_POINT ( 'NONE',  ( 17.50000000000000000, 12.50000000000000000, 1.100000000000000089 ) ) ;
#177 = DIRECTION ( 'NONE',  ( 0.000000000000000000, 1.000000000000000000, 0.000000000000000000 ) ) ;
#178 = PRESENTATION_STYLE_ASSIGNMENT (( #148 ) ) ;
#179 = ORIENTED_EDGE ( 'NONE', *, *, #72, .T. ) ;
#180 = VECTOR ( 'NONE', #177, 1000.000000000000000 ) ;
#181 = FILL_AREA_STYLE_COLOUR ( '', #153 ) ;
#182 = APPLICATION_PROTOCOL_DEFINITION ( 'draft international standard', 'automotive_design', 1998, #18 ) ;
#183 = EDGE_CURVE ( 'NONE', #2, #157, #166, .T. ) ;
#184 =( GEOMETRIC_REPRESENTATION_CONTEXT ( 3 ) GLOBAL_UNCERTAINTY_ASSIGNED_CONTEXT ( ( #185 ) ) GLOBAL_UNIT_ASSIGNED_CONTEXT ( ( #201, #71, #123 ) ) REPRESENTATION_CONTEXT ( 'NONE', 'WORKASPACE' ) );
#185 = UNCERTAINTY_MEASURE_WITH_UNIT (LENGTH_MEASURE( 1.000000000000000082E-05 ), #201, 'distance_accuracy_value', 'NONE');
#186 = ORIENTED_EDGE ( 'NONE', *, *, #146, .F. ) ;
#187 = CARTESIAN_POINT ( 'NONE',  ( 0.000000000000000000, 0.000000000000000000, 0.000000000000000000 ) ) ;
#188 = ADVANCED_FACE ( 'NONE', ( #10 ), #96, .F. ) ;
#189 = ORIENTED_EDGE ( 'NONE', *, *, #3, .F. ) ;
#190 = DIRECTION ( 'NONE',  ( 0.000000000000000000, 0.000000000000000000, 1.000000000000000000 ) ) ;
#191 = EDGE_LOOP ( 'NONE', ( #48, #112, #22, #75 ) ) ;
#192 = LINE ( 'NONE', #159, #59 ) ;
#193 = DIRECTION ( 'NONE',  ( -1.000000000000000000, -0.000000000000000000, -0.000000000000000000 ) ) ;
#194 =( NAMED_UNIT ( * ) PLANE_ANGLE_UNIT ( ) SI_UNIT ( $, .RADIAN. ) );
#195 = DIRECTION ( 'NONE',  ( -1.000000000000000000, 0.000000000000000000, 0.000000000000000000 ) ) ;
#196 =( LENGTH_UNIT ( ) NAMED_UNIT ( * ) SI_UNIT ( .MILLI., .METRE. ) );
#197 = SURFACE_STYLE_FILL_AREA ( #68 ) ;
#198 = VECTOR ( 'NONE', #94, 1000.000000000000000 ) ;
#199 = DIRECTION ( 'NONE',  ( 0.000000000000000000, -0.000000000000000000, 1.000000000000000000 ) ) ;
#200 = ADVANCED_FACE ( 'NONE', ( #49 ), #7, .F. ) ;
#201 =( LENGTH_UNIT ( ) NAMED_UNIT ( * ) SI_UNIT ( .MILLI., .METRE. ) );
#202 = PRODUCT_DEFINITION_FORMATION_WITH_SPECIFIED_SOURCE ( 'ÈÎºÎ', '', #55, .NOT_KNOWN. ) ;
ENDSEC;
END-ISO-10303-21;
