ISO-10303-21;
HEADER;
FILE_DESCRIPTION (( 'STEP AP214' ),
    '1' );
FILE_NAME ('GDMLPH-500-12x17.STEP',
    '2024-08-13T06:06:27',
    ( 'Windows User' ),
    ( 'P R C' ),
    'SwSTEP 2.0',
    'SolidWorks 2022',
    '' );
FILE_SCHEMA (( 'AUTOMOTIVE_DESIGN' ));
ENDSEC;

DATA;
#1 = PRODUCT_DEFINITION ( 'Î´Öª', '', #141, #153 ) ;
#2 = MANIFOLD_SOLID_BREP ( 'Í¹Ì¨-À­Éì1', #101 ) ;
#3 = CARTESIAN_POINT ( 'NONE',  ( 17.50000000000000000, 0.000000000000000000, 1.100000000000000089 ) ) ;
#4 = ORIENTED_EDGE ( 'NONE', *, *, #185, .F. ) ;
#5 = EDGE_LOOP ( 'NONE', ( #21, #109, #164, #192 ) ) ;
#6 = FACE_OUTER_BOUND ( 'NONE', #63, .T. ) ;
#7 = MECHANICAL_DESIGN_GEOMETRIC_PRESENTATION_REPRESENTATION (  '', ( #103 ), #86 ) ;
#8 = DIRECTION ( 'NONE',  ( -1.000000000000000000, -0.000000000000000000, -0.000000000000000000 ) ) ;
#9 = PLANE ( 'NONE',  #184 ) ;
#10 = EDGE_LOOP ( 'NONE', ( #85, #32, #174, #166 ) ) ;
#11 = EDGE_CURVE ( 'NONE', #111, #68, #93, .T. ) ;
#12 = DIRECTION ( 'NONE',  ( 1.000000000000000000, 0.000000000000000000, 0.000000000000000000 ) ) ;
#13 = VECTOR ( 'NONE', #163, 1000.000000000000000 ) ;
#14 = APPLICATION_PROTOCOL_DEFINITION ( 'draft international standard', 'automotive_design', 1998, #199 ) ;
#15 = DIRECTION ( 'NONE',  ( -0.000000000000000000, -0.000000000000000000, -1.000000000000000000 ) ) ;
#16 = LINE ( 'NONE', #29, #27 ) ;
#17 = ADVANCED_FACE ( 'NONE', ( #76 ), #75, .F. ) ;
#18 = DIRECTION ( 'NONE',  ( -0.000000000000000000, -0.000000000000000000, -1.000000000000000000 ) ) ;
#19 = VERTEX_POINT ( 'NONE', #92 ) ;
#20 = VECTOR ( 'NONE', #64, 1000.000000000000000 ) ;
#21 = ORIENTED_EDGE ( 'NONE', *, *, #182, .T. ) ;
#22 = PRESENTATION_STYLE_ASSIGNMENT (( #161 ) ) ;
#23 = LINE ( 'NONE', #178, #157 ) ;
#24 = FACE_OUTER_BOUND ( 'NONE', #135, .T. ) ;
#25 = VERTEX_POINT ( 'NONE', #45 ) ;
#26 = AXIS2_PLACEMENT_3D ( 'NONE', #191, #37, #112 ) ;
#27 = VECTOR ( 'NONE', #171, 1000.000000000000000 ) ;
#28 = CARTESIAN_POINT ( 'NONE',  ( 17.50000000000000000, 12.50000000000000000, 0.000000000000000000 ) ) ;
#29 = CARTESIAN_POINT ( 'NONE',  ( 17.50000000000000000, 12.50000000000000000, 1.100000000000000089 ) ) ;
#30 = ORIENTED_EDGE ( 'NONE', *, *, #11, .T. ) ;
#31 = DIRECTION ( 'NONE',  ( 0.000000000000000000, -0.000000000000000000, 1.000000000000000000 ) ) ;
#32 = ORIENTED_EDGE ( 'NONE', *, *, #138, .F. ) ;
#33 = LINE ( 'NONE', #102, #51 ) ;
#34 = EDGE_CURVE ( 'NONE', #25, #19, #94, .T. ) ;
#35 = DIRECTION ( 'NONE',  ( -1.000000000000000000, -0.000000000000000000, -0.000000000000000000 ) ) ;
#36 = AXIS2_PLACEMENT_3D ( 'NONE', #201, #140, #73 ) ;
#37 = DIRECTION ( 'NONE',  ( 0.000000000000000000, 0.000000000000000000, 1.000000000000000000 ) ) ;
#38 = EDGE_CURVE ( 'NONE', #83, #46, #16, .T. ) ;
#39 = PLANE ( 'NONE',  #44 ) ;
#40 = DIRECTION ( 'NONE',  ( -1.000000000000000000, 0.000000000000000000, -0.000000000000000000 ) ) ;
#41 = UNCERTAINTY_MEASURE_WITH_UNIT (LENGTH_MEASURE( 1.000000000000000082E-05 ), #95, 'distance_accuracy_value', 'NONE');
#42 = PRODUCT_DEFINITION_SHAPE ( 'NONE', 'NONE',  #1 ) ;
#43 = PRESENTATION_STYLE_ASSIGNMENT (( #142 ) ) ;
#44 = AXIS2_PLACEMENT_3D ( 'NONE', #126, #187, #40 ) ;
#45 = CARTESIAN_POINT ( 'NONE',  ( 0.000000000000000000, 0.000000000000000000, 1.100000000000000089 ) ) ;
#46 = VERTEX_POINT ( 'NONE', #28 ) ;
#47 = SURFACE_SIDE_STYLE ('',( #136 ) ) ;
#48 = ORIENTED_EDGE ( 'NONE', *, *, #38, .T. ) ;
#49 = DIRECTION ( 'NONE',  ( 0.000000000000000000, -0.000000000000000000, -1.000000000000000000 ) ) ;
#50 = SHAPE_DEFINITION_REPRESENTATION ( #42, #179 ) ;
#51 = VECTOR ( 'NONE', #35, 1000.000000000000000 ) ;
#52 = DIRECTION ( 'NONE',  ( 0.000000000000000000, 0.000000000000000000, -1.000000000000000000 ) ) ;
#53 = ORIENTED_EDGE ( 'NONE', *, *, #168, .T. ) ;
#54 = VECTOR ( 'NONE', #15, 1000.000000000000000 ) ;
#55 = DIRECTION ( 'NONE',  ( -1.000000000000000000, 0.000000000000000000, 0.000000000000000000 ) ) ;
#56 = EDGE_LOOP ( 'NONE', ( #160, #96, #145, #131 ) ) ;
#57 = CARTESIAN_POINT ( 'NONE',  ( 0.000000000000000000, 0.000000000000000000, 1.100000000000000089 ) ) ;
#58 = LINE ( 'NONE', #200, #54 ) ;
#59 = FILL_AREA_STYLE ('',( #77 ) ) ;
#60 = STYLED_ITEM ( 'NONE', ( #43 ), #2 ) ;
#61 = VERTEX_POINT ( 'NONE', #124 ) ;
#62 = APPLICATION_PROTOCOL_DEFINITION ( 'draft international standard', 'automotive_design', 1998, #146 ) ;
#63 = EDGE_LOOP ( 'NONE', ( #176, #130, #159, #48 ) ) ;
#64 = DIRECTION ( 'NONE',  ( -0.000000000000000000, -1.000000000000000000, -0.000000000000000000 ) ) ;
#65 = AXIS2_PLACEMENT_3D ( 'NONE', #114, #134, #49 ) ;
#66 = LINE ( 'NONE', #194, #74 ) ;
#67 =( NAMED_UNIT ( * ) PLANE_ANGLE_UNIT ( ) SI_UNIT ( $, .RADIAN. ) );
#68 = VERTEX_POINT ( 'NONE', #186 ) ;
#69 = FILL_AREA_STYLE ('',( #84 ) ) ;
#70 = ORIENTED_EDGE ( 'NONE', *, *, #38, .F. ) ;
#71 = ADVANCED_FACE ( 'NONE', ( #72 ), #89, .F. ) ;
#72 = FACE_OUTER_BOUND ( 'NONE', #5, .T. ) ;
#73 = DIRECTION ( 'NONE',  ( -1.000000000000000000, 0.000000000000000000, -0.000000000000000000 ) ) ;
#74 = VECTOR ( 'NONE', #133, 1000.000000000000000 ) ;
#75 = PLANE ( 'NONE',  #121 ) ;
#76 = FACE_OUTER_BOUND ( 'NONE', #143, .T. ) ;
#77 = FILL_AREA_STYLE_COLOUR ( '', #162 ) ;
#78 = MECHANICAL_DESIGN_GEOMETRIC_PRESENTATION_REPRESENTATION (  '', ( #60 ), #170 ) ;
#79 = ORIENTED_EDGE ( 'NONE', *, *, #11, .F. ) ;
#80 =( NAMED_UNIT ( * ) PLANE_ANGLE_UNIT ( ) SI_UNIT ( $, .RADIAN. ) );
#81 = LINE ( 'NONE', #177, #20 ) ;
#82 = DIRECTION ( 'NONE',  ( 0.000000000000000000, 0.000000000000000000, 1.000000000000000000 ) ) ;
#83 = VERTEX_POINT ( 'NONE', #88 ) ;
#84 = FILL_AREA_STYLE_COLOUR ( '', #151 ) ;
#85 = ORIENTED_EDGE ( 'NONE', *, *, #147, .F. ) ;
#86 =( GEOMETRIC_REPRESENTATION_CONTEXT ( 3 ) GLOBAL_UNCERTAINTY_ASSIGNED_CONTEXT ( ( #91 ) ) GLOBAL_UNIT_ASSIGNED_CONTEXT ( ( #123, #80, #183 ) ) REPRESENTATION_CONTEXT ( 'NONE', 'WORKASPACE' ) );
#87 = PRODUCT_RELATED_PRODUCT_CATEGORY ( 'part', '', ( #128 ) ) ;
#88 = CARTESIAN_POINT ( 'NONE',  ( 17.50000000000000000, 12.50000000000000000, 1.100000000000000089 ) ) ;
#89 = PLANE ( 'NONE',  #36 ) ;
#90 = EDGE_CURVE ( 'NONE', #61, #190, #58, .T. ) ;
#91 = UNCERTAINTY_MEASURE_WITH_UNIT (LENGTH_MEASURE( 1.000000000000000082E-05 ), #123, 'distance_accuracy_value', 'NONE');
#92 = CARTESIAN_POINT ( 'NONE',  ( 0.000000000000000000, 0.000000000000000000, 0.000000000000000000 ) ) ;
#93 = LINE ( 'NONE', #3, #196 ) ;
#94 = LINE ( 'NONE', #57, #108 ) ;
#95 =( LENGTH_UNIT ( ) NAMED_UNIT ( * ) SI_UNIT ( .MILLI., .METRE. ) );
#96 = ORIENTED_EDGE ( 'NONE', *, *, #34, .F. ) ;
#97 =( NAMED_UNIT ( * ) SI_UNIT ( $, .STERADIAN. ) SOLID_ANGLE_UNIT ( ) );
#98 =( LENGTH_UNIT ( ) NAMED_UNIT ( * ) SI_UNIT ( .MILLI., .METRE. ) );
#99 = ADVANCED_FACE ( 'NONE', ( #139 ), #39, .T. ) ;
#100 = LINE ( 'NONE', #197, #105 ) ;
#101 = CLOSED_SHELL ( 'NONE', ( #117, #17, #173, #202, #71, #99 ) ) ;
#102 = CARTESIAN_POINT ( 'NONE',  ( 0.000000000000000000, 12.50000000000000000, 1.100000000000000089 ) ) ;
#103 = STYLED_ITEM ( 'NONE', ( #22 ), #179 ) ;
#104 = CARTESIAN_POINT ( 'NONE',  ( 0.000000000000000000, 0.000000000000000000, 1.100000000000000089 ) ) ;
#105 = VECTOR ( 'NONE', #12, 1000.000000000000000 ) ;
#106 = PLANE ( 'NONE',  #144 ) ;
#107 = FACE_OUTER_BOUND ( 'NONE', #56, .T. ) ;
#108 = VECTOR ( 'NONE', #156, 1000.000000000000000 ) ;
#109 = ORIENTED_EDGE ( 'NONE', *, *, #132, .T. ) ;
#110 = SURFACE_SIDE_STYLE ('',( #129 ) ) ;
#111 = VERTEX_POINT ( 'NONE', #169 ) ;
#112 = DIRECTION ( 'NONE',  ( 1.000000000000000000, 0.000000000000000000, 0.000000000000000000 ) ) ;
#113 = ORIENTED_EDGE ( 'NONE', *, *, #152, .T. ) ;
#114 = CARTESIAN_POINT ( 'NONE',  ( 0.000000000000000000, 12.50000000000000000, 1.100000000000000089 ) ) ;
#115 = PRESENTATION_LAYER_ASSIGNMENT (  '', '', ( #103 ) ) ;
#116 = CARTESIAN_POINT ( 'NONE',  ( 17.50000000000000000, 0.000000000000000000, 0.000000000000000000 ) ) ;
#117 = ADVANCED_FACE ( 'NONE', ( #107 ), #106, .F. ) ;
#118 = LINE ( 'NONE', #149, #154 ) ;
#119 = CARTESIAN_POINT ( 'NONE',  ( 17.50000000000000000, 0.000000000000000000, 1.100000000000000089 ) ) ;
#120 = ORIENTED_EDGE ( 'NONE', *, *, #132, .F. ) ;
#121 = AXIS2_PLACEMENT_3D ( 'NONE', #189, #175, #31 ) ;
#122 = LINE ( 'NONE', #119, #125 ) ;
#123 =( LENGTH_UNIT ( ) NAMED_UNIT ( * ) SI_UNIT ( .MILLI., .METRE. ) );
#124 = CARTESIAN_POINT ( 'NONE',  ( 0.000000000000000000, 12.50000000000000000, 1.100000000000000089 ) ) ;
#125 = VECTOR ( 'NONE', #148, 1000.000000000000000 ) ;
#126 = CARTESIAN_POINT ( 'NONE',  ( 0.000000000000000000, 0.000000000000000000, 0.000000000000000000 ) ) ;
#127 =( NAMED_UNIT ( * ) SI_UNIT ( $, .STERADIAN. ) SOLID_ANGLE_UNIT ( ) );
#128 = PRODUCT ( 'GDMLPH-500-12x17', 'GDMLPH-500-12x17', '', ( #137 ) ) ;
#129 = SURFACE_STYLE_FILL_AREA ( #59 ) ;
#130 = ORIENTED_EDGE ( 'NONE', *, *, #90, .F. ) ;
#131 = ORIENTED_EDGE ( 'NONE', *, *, #90, .T. ) ;
#132 = EDGE_CURVE ( 'NONE', #25, #111, #100, .T. ) ;
#133 = DIRECTION ( 'NONE',  ( 1.000000000000000000, 0.000000000000000000, 0.000000000000000000 ) ) ;
#134 = DIRECTION ( 'NONE',  ( 0.000000000000000000, -1.000000000000000000, 0.000000000000000000 ) ) ;
#135 = EDGE_LOOP ( 'NONE', ( #53, #70, #4, #30 ) ) ;
#136 = SURFACE_STYLE_FILL_AREA ( #69 ) ;
#137 = PRODUCT_CONTEXT ( 'NONE', #146, 'mechanical' ) ;
#138 = EDGE_CURVE ( 'NONE', #46, #190, #118, .T. ) ;
#139 = FACE_OUTER_BOUND ( 'NONE', #10, .T. ) ;
#140 = DIRECTION ( 'NONE',  ( 0.000000000000000000, 0.000000000000000000, -1.000000000000000000 ) ) ;
#141 = PRODUCT_DEFINITION_FORMATION_WITH_SPECIFIED_SOURCE ( 'ÈÎºÎ', '', #128, .NOT_KNOWN. ) ;
#142 = SURFACE_STYLE_USAGE ( .BOTH. , #110 ) ;
#143 = EDGE_LOOP ( 'NONE', ( #113, #79, #120, #198 ) ) ;
#144 = AXIS2_PLACEMENT_3D ( 'NONE', #104, #155, #52 ) ;
#145 = ORIENTED_EDGE ( 'NONE', *, *, #182, .F. ) ;
#146 = APPLICATION_CONTEXT ( 'automotive_design' ) ;
#147 = EDGE_CURVE ( 'NONE', #190, #19, #81, .T. ) ;
#148 = DIRECTION ( 'NONE',  ( 0.000000000000000000, 1.000000000000000000, 0.000000000000000000 ) ) ;
#149 = CARTESIAN_POINT ( 'NONE',  ( 0.000000000000000000, 12.50000000000000000, 0.000000000000000000 ) ) ;
#150 = DIRECTION ( 'NONE',  ( -0.000000000000000000, -1.000000000000000000, -0.000000000000000000 ) ) ;
#151 = COLOUR_RGB ( '',1.000000000000000000, 1.000000000000000000, 1.000000000000000000 ) ;
#152 = EDGE_CURVE ( 'NONE', #19, #68, #66, .T. ) ;
#153 = PRODUCT_DEFINITION_CONTEXT ( 'detailed design', #199, 'design' ) ;
#154 = VECTOR ( 'NONE', #8, 1000.000000000000000 ) ;
#155 = DIRECTION ( 'NONE',  ( 1.000000000000000000, 0.000000000000000000, 0.000000000000000000 ) ) ;
#156 = DIRECTION ( 'NONE',  ( -0.000000000000000000, -0.000000000000000000, -1.000000000000000000 ) ) ;
#157 = VECTOR ( 'NONE', #150, 1000.000000000000000 ) ;
#158 =( NAMED_UNIT ( * ) PLANE_ANGLE_UNIT ( ) SI_UNIT ( $, .RADIAN. ) );
#159 = ORIENTED_EDGE ( 'NONE', *, *, #188, .F. ) ;
#160 = ORIENTED_EDGE ( 'NONE', *, *, #147, .T. ) ;
#161 = SURFACE_STYLE_USAGE ( .BOTH. , #47 ) ;
#162 = COLOUR_RGB ( '',1.000000000000000000, 1.000000000000000000, 1.000000000000000000 ) ;
#163 = DIRECTION ( 'NONE',  ( 0.000000000000000000, 1.000000000000000000, 0.000000000000000000 ) ) ;
#164 = ORIENTED_EDGE ( 'NONE', *, *, #185, .T. ) ;
#165 = LINE ( 'NONE', #116, #13 ) ;
#166 = ORIENTED_EDGE ( 'NONE', *, *, #152, .F. ) ;
#167 =( GEOMETRIC_REPRESENTATION_CONTEXT ( 3 ) GLOBAL_UNCERTAINTY_ASSIGNED_CONTEXT ( ( #172 ) ) GLOBAL_UNIT_ASSIGNED_CONTEXT ( ( #98, #67, #97 ) ) REPRESENTATION_CONTEXT ( 'NONE', 'WORKASPACE' ) );
#168 = EDGE_CURVE ( 'NONE', #68, #46, #165, .T. ) ;
#169 = CARTESIAN_POINT ( 'NONE',  ( 17.50000000000000000, 0.000000000000000000, 1.100000000000000089 ) ) ;
#170 =( GEOMETRIC_REPRESENTATION_CONTEXT ( 3 ) GLOBAL_UNCERTAINTY_ASSIGNED_CONTEXT ( ( #41 ) ) GLOBAL_UNIT_ASSIGNED_CONTEXT ( ( #95, #158, #127 ) ) REPRESENTATION_CONTEXT ( 'NONE', 'WORKASPACE' ) );
#171 = DIRECTION ( 'NONE',  ( -0.000000000000000000, -0.000000000000000000, -1.000000000000000000 ) ) ;
#172 = UNCERTAINTY_MEASURE_WITH_UNIT (LENGTH_MEASURE( 1.000000000000000082E-05 ), #98, 'distance_accuracy_value', 'NONE');
#173 = ADVANCED_FACE ( 'NONE', ( #24 ), #9, .F. ) ;
#174 = ORIENTED_EDGE ( 'NONE', *, *, #168, .F. ) ;
#175 = DIRECTION ( 'NONE',  ( 0.000000000000000000, 1.000000000000000000, 0.000000000000000000 ) ) ;
#176 = ORIENTED_EDGE ( 'NONE', *, *, #138, .T. ) ;
#177 = CARTESIAN_POINT ( 'NONE',  ( 0.000000000000000000, 0.000000000000000000, 0.000000000000000000 ) ) ;
#178 = CARTESIAN_POINT ( 'NONE',  ( 0.000000000000000000, 0.000000000000000000, 1.100000000000000089 ) ) ;
#179 = ADVANCED_BREP_SHAPE_REPRESENTATION ( 'GDMLPH-500-12x17', ( #2, #26 ), #167 ) ;
#180 = PRESENTATION_LAYER_ASSIGNMENT (  '', '', ( #60 ) ) ;
#181 = CARTESIAN_POINT ( 'NONE',  ( 0.000000000000000000, 12.50000000000000000, 0.000000000000000000 ) ) ;
#182 = EDGE_CURVE ( 'NONE', #61, #25, #23, .T. ) ;
#183 =( NAMED_UNIT ( * ) SI_UNIT ( $, .STERADIAN. ) SOLID_ANGLE_UNIT ( ) );
#184 = AXIS2_PLACEMENT_3D ( 'NONE', #195, #55, #82 ) ;
#185 = EDGE_CURVE ( 'NONE', #111, #83, #122, .T. ) ;
#186 = CARTESIAN_POINT ( 'NONE',  ( 17.50000000000000000, 0.000000000000000000, 0.000000000000000000 ) ) ;
#187 = DIRECTION ( 'NONE',  ( 0.000000000000000000, 0.000000000000000000, -1.000000000000000000 ) ) ;
#188 = EDGE_CURVE ( 'NONE', #83, #61, #33, .T. ) ;
#189 = CARTESIAN_POINT ( 'NONE',  ( 0.000000000000000000, 0.000000000000000000, 1.100000000000000089 ) ) ;
#190 = VERTEX_POINT ( 'NONE', #181 ) ;
#191 = CARTESIAN_POINT ( 'NONE',  ( 0.000000000000000000, 0.000000000000000000, 0.000000000000000000 ) ) ;
#192 = ORIENTED_EDGE ( 'NONE', *, *, #188, .T. ) ;
#193 = PLANE ( 'NONE',  #65 ) ;
#194 = CARTESIAN_POINT ( 'NONE',  ( 0.000000000000000000, 0.000000000000000000, 0.000000000000000000 ) ) ;
#195 = CARTESIAN_POINT ( 'NONE',  ( 17.50000000000000000, 0.000000000000000000, 1.100000000000000089 ) ) ;
#196 = VECTOR ( 'NONE', #18, 1000.000000000000000 ) ;
#197 = CARTESIAN_POINT ( 'NONE',  ( 0.000000000000000000, 0.000000000000000000, 1.100000000000000089 ) ) ;
#198 = ORIENTED_EDGE ( 'NONE', *, *, #34, .T. ) ;
#199 = APPLICATION_CONTEXT ( 'automotive_design' ) ;
#200 = CARTESIAN_POINT ( 'NONE',  ( 0.000000000000000000, 12.50000000000000000, 1.100000000000000089 ) ) ;
#201 = CARTESIAN_POINT ( 'NONE',  ( 0.000000000000000000, 0.000000000000000000, 1.100000000000000089 ) ) ;
#202 = ADVANCED_FACE ( 'NONE', ( #6 ), #193, .F. ) ;
ENDSEC;
END-ISO-10303-21;
