ISO-10303-21;
HEADER;
FILE_DESCRIPTION (( 'STEP AP214' ),
    '1' );
FILE_NAME ('GNIF-070-4390-D10.STEP',
    '2024-07-19T14:42:22',
    ( '' ),
    ( '' ),
    'SwSTEP 2.0',
    'SolidWorks 2022',
    '' );
FILE_SCHEMA (( 'AUTOMOTIVE_DESIGN' ));
ENDSEC;

DATA;
#1 = CARTESIAN_POINT ( 'NONE',  ( 5.000000000000000000, 6.123233995736766282E-16, 0.8000000000000012657 ) ) ;
#2 = AXIS2_PLACEMENT_3D ( 'NONE', #104, #14, #196 ) ;
#3 = DIRECTION ( 'NONE',  ( -1.000000000000000000, 0.000000000000000000, 0.000000000000000000 ) ) ;
#4 = PLANE ( 'NONE',  #75 ) ;
#5 = ORIENTED_EDGE ( 'NONE', *, *, #193, .F. ) ;
#6 = CARTESIAN_POINT ( 'NONE',  ( -5.000000000000000000, 0.000000000000000000, 0.1999999999999996503 ) ) ;
#7 = ADVANCED_FACE ( 'NONE', ( #139 ), #31, .T. ) ;
#8 = COLOUR_RGB ( '',1.000000000000000000, 1.000000000000000000, 1.000000000000000000 ) ;
#9 = VECTOR ( 'NONE', #227, 1000.000000000000000 ) ;
#10 = FILL_AREA_STYLE_COLOUR ( '', #129 ) ;
#11 = EDGE_CURVE ( 'NONE', #240, #217, #101, .T. ) ;
#12 = VECTOR ( 'NONE', #81, 1000.000000000000000 ) ;
#13 = DIRECTION ( 'NONE',  ( -0.000000000000000000, -0.000000000000000000, 1.000000000000000000 ) ) ;
#14 = DIRECTION ( 'NONE',  ( -0.000000000000000000, -0.000000000000000000, -1.000000000000000000 ) ) ;
#15 = ORIENTED_EDGE ( 'NONE', *, *, #213, .F. ) ;
#16 = CARTESIAN_POINT ( 'NONE',  ( 0.000000000000000000, 0.000000000000000000, 1.000000000000000000 ) ) ;
#17 = CARTESIAN_POINT ( 'NONE',  ( 0.000000000000000000, 0.000000000000000000, 0.1999999999999996503 ) ) ;
#18 = CIRCLE ( 'NONE', #135, 5.000000000000000000 ) ;
#19 = CARTESIAN_POINT ( 'NONE',  ( 0.000000000000000000, 0.000000000000000000, 0.000000000000000000 ) ) ;
#20 = EDGE_LOOP ( 'NONE', ( #149, #125 ) ) ;
#21 = CARTESIAN_POINT ( 'NONE',  ( 0.000000000000000000, 0.000000000000000000, 0.1999999999999996503 ) ) ;
#22 = CARTESIAN_POINT ( 'NONE',  ( 0.000000000000000000, 0.000000000000000000, 1.000000000000000000 ) ) ;
#23 = EDGE_LOOP ( 'NONE', ( #237, #169 ) ) ;
#24 =( LENGTH_UNIT ( ) NAMED_UNIT ( * ) SI_UNIT ( .MILLI., .METRE. ) );
#25 = CIRCLE ( 'NONE', #112, 5.000000000000000000 ) ;
#26 = EDGE_CURVE ( 'NONE', #51, #93, #179, .T. ) ;
#27 = VECTOR ( 'NONE', #164, 1000.000000000000114 ) ;
#28 = VERTEX_POINT ( 'NONE', #214 ) ;
#29 = CARTESIAN_POINT ( 'NONE',  ( 0.000000000000000000, 0.000000000000000000, 0.8000000000000012657 ) ) ;
#30 = CARTESIAN_POINT ( 'NONE',  ( -4.800000000000002487, 0.000000000000000000, 1.000000000000000000 ) ) ;
#31 = PLANE ( 'NONE',  #239 ) ;
#32 = PRESENTATION_LAYER_ASSIGNMENT (  '', '', ( #167 ) ) ;
#33 = DIRECTION ( 'NONE',  ( -0.000000000000000000, -0.000000000000000000, -1.000000000000000000 ) ) ;
#34 = ADVANCED_FACE ( 'NONE', ( #121 ), #144, .T. ) ;
#35 = EDGE_LOOP ( 'NONE', ( #199, #48, #236, #41 ) ) ;
#36 = DIRECTION ( 'NONE',  ( -0.000000000000000000, -0.000000000000000000, -1.000000000000000000 ) ) ;
#37 = DIRECTION ( 'NONE',  ( 0.000000000000000000, 0.000000000000000000, -1.000000000000000000 ) ) ;
#38 = MECHANICAL_DESIGN_GEOMETRIC_PRESENTATION_REPRESENTATION (  '', ( #117 ), #218 ) ;
#39 = CARTESIAN_POINT ( 'NONE',  ( 0.000000000000000000, 0.000000000000000000, 1.000000000000000000 ) ) ;
#40 = FACE_OUTER_BOUND ( 'NONE', #20, .T. ) ;
#41 = ORIENTED_EDGE ( 'NONE', *, *, #50, .F. ) ;
#42 = CARTESIAN_POINT ( 'NONE',  ( 0.000000000000000000, 0.000000000000000000, 0.000000000000000000 ) ) ;
#43 =( LENGTH_UNIT ( ) NAMED_UNIT ( * ) SI_UNIT ( .MILLI., .METRE. ) );
#44 = SURFACE_STYLE_USAGE ( .BOTH. , #131 ) ;
#45 = PRODUCT_DEFINITION ( 'Î´Öª', '', #134, #207 ) ;
#46 = UNCERTAINTY_MEASURE_WITH_UNIT (LENGTH_MEASURE( 1.000000000000000082E-05 ), #24, 'distance_accuracy_value', 'NONE');
#47 = CIRCLE ( 'NONE', #185, 4.799999999999999822 ) ;
#48 = ORIENTED_EDGE ( 'NONE', *, *, #11, .T. ) ;
#49 = CARTESIAN_POINT ( 'NONE',  ( 0.000000000000000000, 0.000000000000000000, 0.1999999999999996503 ) ) ;
#50 = EDGE_CURVE ( 'NONE', #67, #234, #212, .T. ) ;
#51 = VERTEX_POINT ( 'NONE', #182 ) ;
#52 = SURFACE_SIDE_STYLE ('',( #160 ) ) ;
#53 = MANIFOLD_SOLID_BREP ( 'µ¹½Ç1', #76 ) ;
#54 = CARTESIAN_POINT ( 'NONE',  ( 0.000000000000000000, 0.000000000000000000, 0.1999999999999996503 ) ) ;
#55 = DIRECTION ( 'NONE',  ( 1.000000000000000000, 0.000000000000000000, 0.000000000000000000 ) ) ;
#56 = EDGE_LOOP ( 'NONE', ( #123, #137, #103, #95 ) ) ;
#57 = DIRECTION ( 'NONE',  ( -1.000000000000000000, 0.000000000000000000, 0.000000000000000000 ) ) ;
#58 = EDGE_CURVE ( 'NONE', #240, #67, #88, .T. ) ;
#59 = AXIS2_PLACEMENT_3D ( 'NONE', #39, #110, #57 ) ;
#60 = CONICAL_SURFACE ( 'NONE', #143, 4.800000000000002487, 0.7853981633974461696 ) ;
#61 =( NAMED_UNIT ( * ) SI_UNIT ( $, .STERADIAN. ) SOLID_ANGLE_UNIT ( ) );
#62 = SURFACE_STYLE_FILL_AREA ( #154 ) ;
#63 = DIRECTION ( 'NONE',  ( 1.000000000000000000, 0.000000000000000000, 0.000000000000000000 ) ) ;
#64 = CARTESIAN_POINT ( 'NONE',  ( -5.000000000000000000, 6.123233995736765296E-16, 0.1999999999999996503 ) ) ;
#65 = PRODUCT_DEFINITION_SHAPE ( 'NONE', 'NONE',  #45 ) ;
#66 = DIRECTION ( 'NONE',  ( -0.000000000000000000, -0.000000000000000000, 1.000000000000000000 ) ) ;
#67 = VERTEX_POINT ( 'NONE', #145 ) ;
#68 = ORIENTED_EDGE ( 'NONE', *, *, #82, .T. ) ;
#69 = CARTESIAN_POINT ( 'NONE',  ( 5.000000000000000000, 6.123233995736766282E-16, 1.000000000000000000 ) ) ;
#70 = CARTESIAN_POINT ( 'NONE',  ( 0.000000000000000000, 0.000000000000000000, 1.000000000000000000 ) ) ;
#71 = CIRCLE ( 'NONE', #107, 5.000000000000000000 ) ;
#72 = DIRECTION ( 'NONE',  ( 0.000000000000000000, 0.000000000000000000, -1.000000000000000000 ) ) ;
#73 = DIRECTION ( 'NONE',  ( -0.000000000000000000, -0.000000000000000000, -1.000000000000000000 ) ) ;
#74 = VECTOR ( 'NONE', #33, 1000.000000000000000 ) ;
#75 = AXIS2_PLACEMENT_3D ( 'NONE', #42, #170, #228 ) ;
#76 = CLOSED_SHELL ( 'NONE', ( #34, #223, #155, #111, #7, #197, #106, #173 ) ) ;
#77 = UNCERTAINTY_MEASURE_WITH_UNIT (LENGTH_MEASURE( 1.000000000000000082E-05 ), #43, 'distance_accuracy_value', 'NONE');
#78 =( NAMED_UNIT ( * ) PLANE_ANGLE_UNIT ( ) SI_UNIT ( $, .RADIAN. ) );
#79 = LINE ( 'NONE', #30, #231 ) ;
#80 = ADVANCED_BREP_SHAPE_REPRESENTATION ( 'GNIF-070-4390-D10', ( #53, #230 ), #229 ) ;
#81 = DIRECTION ( 'NONE',  ( 0.7071067811865490160, 0.000000000000000000, 0.7071067811865459074 ) ) ;
#82 = EDGE_CURVE ( 'NONE', #234, #217, #219, .T. ) ;
#83 = DIRECTION ( 'NONE',  ( 0.000000000000000000, 0.000000000000000000, 1.000000000000000000 ) ) ;
#84 = DIRECTION ( 'NONE',  ( 0.000000000000000000, 0.000000000000000000, 1.000000000000000000 ) ) ;
#85 = CARTESIAN_POINT ( 'NONE',  ( 4.800000000000002487, 5.878304635907297169E-16, 1.000000000000000000 ) ) ;
#86 = FILL_AREA_STYLE_COLOUR ( '', #8 ) ;
#87 = DIRECTION ( 'NONE',  ( 1.000000000000000000, 0.000000000000000000, 0.000000000000000000 ) ) ;
#88 = CIRCLE ( 'NONE', #232, 4.799999999999999822 ) ;
#89 = AXIS2_PLACEMENT_3D ( 'NONE', #190, #186, #146 ) ;
#90 = FACE_OUTER_BOUND ( 'NONE', #128, .T. ) ;
#91 = EDGE_CURVE ( 'NONE', #181, #93, #25, .T. ) ;
#92 = LINE ( 'NONE', #150, #9 ) ;
#93 = VERTEX_POINT ( 'NONE', #1 ) ;
#94 = CARTESIAN_POINT ( 'NONE',  ( -4.799999999999999822, 6.000769315822029754E-16, 0.000000000000000000 ) ) ;
#95 = ORIENTED_EDGE ( 'NONE', *, *, #205, .F. ) ;
#96 = DIRECTION ( 'NONE',  ( -0.000000000000000000, -0.000000000000000000, 1.000000000000000000 ) ) ;
#97 = EDGE_LOOP ( 'NONE', ( #206, #210, #68, #5 ) ) ;
#98 = DIRECTION ( 'NONE',  ( 0.000000000000000000, 0.000000000000000000, -1.000000000000000000 ) ) ;
#99 = ORIENTED_EDGE ( 'NONE', *, *, #116, .F. ) ;
#100 = DIRECTION ( 'NONE',  ( -0.7071067811865460184, 0.000000000000000000, -0.7071067811865489050 ) ) ;
#101 = LINE ( 'NONE', #64, #127 ) ;
#102 = PRESENTATION_STYLE_ASSIGNMENT (( #200 ) ) ;
#103 = ORIENTED_EDGE ( 'NONE', *, *, #126, .T. ) ;
#104 = CARTESIAN_POINT ( 'NONE',  ( 0.000000000000000000, 0.000000000000000000, 1.000000000000000000 ) ) ;
#105 = ORIENTED_EDGE ( 'NONE', *, *, #126, .F. ) ;
#106 = ADVANCED_FACE ( 'NONE', ( #216 ), #60, .T. ) ;
#107 = AXIS2_PLACEMENT_3D ( 'NONE', #17, #13, #87 ) ;
#108 = AXIS2_PLACEMENT_3D ( 'NONE', #21, #96, #184 ) ;
#109 = CYLINDRICAL_SURFACE ( 'NONE', #211, 5.000000000000000000 ) ;
#110 = DIRECTION ( 'NONE',  ( 0.000000000000000000, 0.000000000000000000, -1.000000000000000000 ) ) ;
#111 = ADVANCED_FACE ( 'NONE', ( #177 ), #138, .T. ) ;
#112 = AXIS2_PLACEMENT_3D ( 'NONE', #29, #37, #176 ) ;
#113 = SHAPE_DEFINITION_REPRESENTATION ( #65, #80 ) ;
#114 =( NAMED_UNIT ( * ) SI_UNIT ( $, .STERADIAN. ) SOLID_ANGLE_UNIT ( ) );
#115 = APPLICATION_PROTOCOL_DEFINITION ( 'draft international standard', 'automotive_design', 1998, #222 ) ;
#116 = EDGE_CURVE ( 'NONE', #217, #234, #71, .T. ) ;
#117 = STYLED_ITEM ( 'NONE', ( #233 ), #80 ) ;
#118 = ORIENTED_EDGE ( 'NONE', *, *, #205, .T. ) ;
#119 = DIRECTION ( 'NONE',  ( -0.000000000000000000, -0.000000000000000000, 1.000000000000000000 ) ) ;
#120 = EDGE_LOOP ( 'NONE', ( #141, #118, #161, #215 ) ) ;
#121 = FACE_OUTER_BOUND ( 'NONE', #35, .T. ) ;
#122 = AXIS2_PLACEMENT_3D ( 'NONE', #54, #119, #178 ) ;
#123 = ORIENTED_EDGE ( 'NONE', *, *, #26, .F. ) ;
#124 = FILL_AREA_STYLE ('',( #86 ) ) ;
#125 = ORIENTED_EDGE ( 'NONE', *, *, #58, .T. ) ;
#126 = EDGE_CURVE ( 'NONE', #28, #181, #79, .T. ) ;
#127 = VECTOR ( 'NONE', #133, 1000.000000000000000 ) ;
#128 = EDGE_LOOP ( 'NONE', ( #147, #15, #203, #99 ) ) ;
#129 = COLOUR_RGB ( '',1.000000000000000000, 1.000000000000000000, 1.000000000000000000 ) ;
#130 = PRODUCT_CONTEXT ( 'NONE', #192, 'mechanical' ) ;
#131 = SURFACE_SIDE_STYLE ('',( #62 ) ) ;
#132 = EDGE_CURVE ( 'NONE', #28, #51, #194, .T. ) ;
#133 = DIRECTION ( 'NONE',  ( -0.7071067811865490160, 8.659560562354950115E-17, 0.7071067811865459074 ) ) ;
#134 = PRODUCT_DEFINITION_FORMATION_WITH_SPECIFIED_SOURCE ( 'ÈÎºÎ', '', #159, .NOT_KNOWN. ) ;
#135 = AXIS2_PLACEMENT_3D ( 'NONE', #226, #72, #148 ) ;
#136 =( LENGTH_UNIT ( ) NAMED_UNIT ( * ) SI_UNIT ( .MILLI., .METRE. ) );
#137 = ORIENTED_EDGE ( 'NONE', *, *, #132, .F. ) ;
#138 = CYLINDRICAL_SURFACE ( 'NONE', #2, 5.000000000000000000 ) ;
#139 = FACE_OUTER_BOUND ( 'NONE', #23, .T. ) ;
#140 =( NAMED_UNIT ( * ) PLANE_ANGLE_UNIT ( ) SI_UNIT ( $, .RADIAN. ) );
#141 = ORIENTED_EDGE ( 'NONE', *, *, #151, .F. ) ;
#142 = CONICAL_SURFACE ( 'NONE', #59, 4.800000000000002487, 0.7853981633974461696 ) ;
#143 = AXIS2_PLACEMENT_3D ( 'NONE', #70, #98, #3 ) ;
#144 = CONICAL_SURFACE ( 'NONE', #209, 5.000000000000000000, 0.7853981633974503884 ) ;
#145 = CARTESIAN_POINT ( 'NONE',  ( 4.799999999999999822, 0.000000000000000000, 0.000000000000000000 ) ) ;
#146 = DIRECTION ( 'NONE',  ( 1.000000000000000000, 0.000000000000000000, 0.000000000000000000 ) ) ;
#147 = ORIENTED_EDGE ( 'NONE', *, *, #11, .F. ) ;
#148 = DIRECTION ( 'NONE',  ( 1.000000000000000000, 0.000000000000000000, 0.000000000000000000 ) ) ;
#149 = ORIENTED_EDGE ( 'NONE', *, *, #213, .T. ) ;
#150 = CARTESIAN_POINT ( 'NONE',  ( -5.000000000000000000, 0.000000000000000000, 1.000000000000000000 ) ) ;
#151 = EDGE_CURVE ( 'NONE', #93, #234, #238, .T. ) ;
#152 = AXIS2_PLACEMENT_3D ( 'NONE', #16, #84, #163 ) ;
#153 = CONICAL_SURFACE ( 'NONE', #108, 5.000000000000000000, 0.7853981633974503884 ) ;
#154 = FILL_AREA_STYLE ('',( #10 ) ) ;
#155 = ADVANCED_FACE ( 'NONE', ( #180 ), #109, .T. ) ;
#156 = APPLICATION_PROTOCOL_DEFINITION ( 'draft international standard', 'automotive_design', 1998, #192 ) ;
#157 = MECHANICAL_DESIGN_GEOMETRIC_PRESENTATION_REPRESENTATION (  '', ( #167 ), #189 ) ;
#158 = CARTESIAN_POINT ( 'NONE',  ( 0.000000000000000000, 0.000000000000000000, 1.000000000000000000 ) ) ;
#159 = PRODUCT ( 'GNIF-070-4390-D10', 'GNIF-070-4390-D10', '', ( #130 ) ) ;
#160 = SURFACE_STYLE_FILL_AREA ( #124 ) ;
#161 = ORIENTED_EDGE ( 'NONE', *, *, #193, .T. ) ;
#162 = DIRECTION ( 'NONE',  ( 1.000000000000000000, 0.000000000000000000, -0.000000000000000000 ) ) ;
#163 = DIRECTION ( 'NONE',  ( 1.000000000000000000, 0.000000000000000000, 0.000000000000000000 ) ) ;
#164 = DIRECTION ( 'NONE',  ( 0.7071067811865460184, 8.659560562354913137E-17, -0.7071067811865489050 ) ) ;
#165 = EDGE_CURVE ( 'NONE', #51, #28, #202, .T. ) ;
#166 = CARTESIAN_POINT ( 'NONE',  ( 0.000000000000000000, 0.000000000000000000, 0.000000000000000000 ) ) ;
#167 = STYLED_ITEM ( 'NONE', ( #102 ), #53 ) ;
#168 = CARTESIAN_POINT ( 'NONE',  ( -5.000000000000000000, 0.000000000000000000, 0.8000000000000012657 ) ) ;
#169 = ORIENTED_EDGE ( 'NONE', *, *, #165, .T. ) ;
#170 = DIRECTION ( 'NONE',  ( 0.000000000000000000, 0.000000000000000000, 1.000000000000000000 ) ) ;
#171 = DIRECTION ( 'NONE',  ( -1.000000000000000000, 0.000000000000000000, 0.000000000000000000 ) ) ;
#172 = CARTESIAN_POINT ( 'NONE',  ( 0.000000000000000000, 0.000000000000000000, 0.000000000000000000 ) ) ;
#173 = ADVANCED_FACE ( 'NONE', ( #90 ), #153, .T. ) ;
#174 = UNCERTAINTY_MEASURE_WITH_UNIT (LENGTH_MEASURE( 1.000000000000000082E-05 ), #136, 'distance_accuracy_value', 'NONE');
#175 = PRODUCT_RELATED_PRODUCT_CATEGORY ( 'part', '', ( #159 ) ) ;
#176 = DIRECTION ( 'NONE',  ( 1.000000000000000000, 0.000000000000000000, 0.000000000000000000 ) ) ;
#177 = FACE_OUTER_BOUND ( 'NONE', #120, .T. ) ;
#178 = DIRECTION ( 'NONE',  ( 1.000000000000000000, 0.000000000000000000, 0.000000000000000000 ) ) ;
#179 = LINE ( 'NONE', #85, #27 ) ;
#180 = FACE_OUTER_BOUND ( 'NONE', #97, .T. ) ;
#181 = VERTEX_POINT ( 'NONE', #168 ) ;
#182 = CARTESIAN_POINT ( 'NONE',  ( 4.800000000000002487, 6.000769315822031726E-16, 1.000000000000000000 ) ) ;
#183 = PRESENTATION_LAYER_ASSIGNMENT (  '', '', ( #117 ) ) ;
#184 = DIRECTION ( 'NONE',  ( 1.000000000000000000, 0.000000000000000000, 0.000000000000000000 ) ) ;
#185 = AXIS2_PLACEMENT_3D ( 'NONE', #19, #224, #55 ) ;
#186 = DIRECTION ( 'NONE',  ( 0.000000000000000000, 0.000000000000000000, 1.000000000000000000 ) ) ;
#187 = CARTESIAN_POINT ( 'NONE',  ( 5.000000000000000000, 6.123233995736766282E-16, 0.1999999999999996503 ) ) ;
#188 = ORIENTED_EDGE ( 'NONE', *, *, #91, .F. ) ;
#189 =( GEOMETRIC_REPRESENTATION_CONTEXT ( 3 ) GLOBAL_UNCERTAINTY_ASSIGNED_CONTEXT ( ( #174 ) ) GLOBAL_UNIT_ASSIGNED_CONTEXT ( ( #136, #140, #235 ) ) REPRESENTATION_CONTEXT ( 'NONE', 'WORKASPACE' ) );
#190 = CARTESIAN_POINT ( 'NONE',  ( 0.000000000000000000, 0.000000000000000000, 1.000000000000000000 ) ) ;
#191 =( NAMED_UNIT ( * ) PLANE_ANGLE_UNIT ( ) SI_UNIT ( $, .RADIAN. ) );
#192 = APPLICATION_CONTEXT ( 'automotive_design' ) ;
#193 = EDGE_CURVE ( 'NONE', #181, #217, #92, .T. ) ;
#194 = CIRCLE ( 'NONE', #152, 4.800000000000002487 ) ;
#195 = ORIENTED_EDGE ( 'NONE', *, *, #165, .F. ) ;
#196 = DIRECTION ( 'NONE',  ( -1.000000000000000000, 0.000000000000000000, 0.000000000000000000 ) ) ;
#197 = ADVANCED_FACE ( 'NONE', ( #40 ), #4, .F. ) ;
#198 = ORIENTED_EDGE ( 'NONE', *, *, #26, .T. ) ;
#199 = ORIENTED_EDGE ( 'NONE', *, *, #58, .F. ) ;
#200 = SURFACE_STYLE_USAGE ( .BOTH. , #52 ) ;
#201 = CARTESIAN_POINT ( 'NONE',  ( 5.000000000000000000, 0.000000000000000000, 0.1999999999999996503 ) ) ;
#202 = CIRCLE ( 'NONE', #89, 4.800000000000002487 ) ;
#203 = ORIENTED_EDGE ( 'NONE', *, *, #50, .T. ) ;
#204 = FACE_OUTER_BOUND ( 'NONE', #225, .T. ) ;
#205 = EDGE_CURVE ( 'NONE', #93, #181, #18, .T. ) ;
#206 = ORIENTED_EDGE ( 'NONE', *, *, #91, .T. ) ;
#207 = PRODUCT_DEFINITION_CONTEXT ( 'detailed design', #222, 'design' ) ;
#208 = DIRECTION ( 'NONE',  ( 0.000000000000000000, 0.000000000000000000, 1.000000000000000000 ) ) ;
#209 = AXIS2_PLACEMENT_3D ( 'NONE', #49, #66, #220 ) ;
#210 = ORIENTED_EDGE ( 'NONE', *, *, #151, .T. ) ;
#211 = AXIS2_PLACEMENT_3D ( 'NONE', #22, #73, #171 ) ;
#212 = LINE ( 'NONE', #201, #12 ) ;
#213 = EDGE_CURVE ( 'NONE', #67, #240, #47, .T. ) ;
#214 = CARTESIAN_POINT ( 'NONE',  ( -4.800000000000002487, 0.000000000000000000, 1.000000000000000000 ) ) ;
#215 = ORIENTED_EDGE ( 'NONE', *, *, #116, .T. ) ;
#216 = FACE_OUTER_BOUND ( 'NONE', #56, .T. ) ;
#217 = VERTEX_POINT ( 'NONE', #6 ) ;
#218 =( GEOMETRIC_REPRESENTATION_CONTEXT ( 3 ) GLOBAL_UNCERTAINTY_ASSIGNED_CONTEXT ( ( #77 ) ) GLOBAL_UNIT_ASSIGNED_CONTEXT ( ( #43, #191, #61 ) ) REPRESENTATION_CONTEXT ( 'NONE', 'WORKASPACE' ) );
#219 = CIRCLE ( 'NONE', #122, 5.000000000000000000 ) ;
#220 = DIRECTION ( 'NONE',  ( 1.000000000000000000, 0.000000000000000000, 0.000000000000000000 ) ) ;
#221 = DIRECTION ( 'NONE',  ( 1.000000000000000000, 0.000000000000000000, 0.000000000000000000 ) ) ;
#222 = APPLICATION_CONTEXT ( 'automotive_design' ) ;
#223 = ADVANCED_FACE ( 'NONE', ( #204 ), #142, .T. ) ;
#224 = DIRECTION ( 'NONE',  ( -0.000000000000000000, -0.000000000000000000, -1.000000000000000000 ) ) ;
#225 = EDGE_LOOP ( 'NONE', ( #195, #198, #188, #105 ) ) ;
#226 = CARTESIAN_POINT ( 'NONE',  ( 0.000000000000000000, 0.000000000000000000, 0.8000000000000012657 ) ) ;
#227 = DIRECTION ( 'NONE',  ( -0.000000000000000000, -0.000000000000000000, -1.000000000000000000 ) ) ;
#228 = DIRECTION ( 'NONE',  ( 1.000000000000000000, 0.000000000000000000, -0.000000000000000000 ) ) ;
#229 =( GEOMETRIC_REPRESENTATION_CONTEXT ( 3 ) GLOBAL_UNCERTAINTY_ASSIGNED_CONTEXT ( ( #46 ) ) GLOBAL_UNIT_ASSIGNED_CONTEXT ( ( #24, #78, #114 ) ) REPRESENTATION_CONTEXT ( 'NONE', 'WORKASPACE' ) );
#230 = AXIS2_PLACEMENT_3D ( 'NONE', #172, #208, #63 ) ;
#231 = VECTOR ( 'NONE', #100, 1000.000000000000114 ) ;
#232 = AXIS2_PLACEMENT_3D ( 'NONE', #166, #36, #221 ) ;
#233 = PRESENTATION_STYLE_ASSIGNMENT (( #44 ) ) ;
#234 = VERTEX_POINT ( 'NONE', #187 ) ;
#235 =( NAMED_UNIT ( * ) SI_UNIT ( $, .STERADIAN. ) SOLID_ANGLE_UNIT ( ) );
#236 = ORIENTED_EDGE ( 'NONE', *, *, #82, .F. ) ;
#237 = ORIENTED_EDGE ( 'NONE', *, *, #132, .T. ) ;
#238 = LINE ( 'NONE', #69, #74 ) ;
#239 = AXIS2_PLACEMENT_3D ( 'NONE', #158, #83, #162 ) ;
#240 = VERTEX_POINT ( 'NONE', #94 ) ;
ENDSEC;
END-ISO-10303-21;
