ISO-10303-21;
HEADER;
FILE_DESCRIPTION (( 'STEP AP203' ),
    '1' );
FILE_NAME ('416007.STEP',
    '2019-08-21T06:56:54',
    ( '' ),
    ( '' ),
    'SwSTEP 2.0',
    'SolidWorks 2016',
    '' );
FILE_SCHEMA (( 'CONFIG_CONTROL_DESIGN' ));
ENDSEC;

DATA;
#1 = CALENDAR_DATE ( 2019, 21, 8 ) ;
#2 = DATE_AND_TIME ( #1, #147 ) ;
#3 = APPROVAL_ROLE ( '' ) ;
#4 = DATE_TIME_ROLE ( 'creation_date' ) ;
#5 = EDGE_CURVE ( 'NONE', #242, #21, #150, .T. ) ;
#6 = CC_DESIGN_PERSON_AND_ORGANIZATION_ASSIGNMENT ( #115, #82, ( #162 ) ) ;
#7 = DIRECTION ( 'NONE',  ( 0.0000000000000000000, 0.0000000000000000000, 1.000000000000000000 ) ) ;
#8 = ADVANCED_BREP_SHAPE_REPRESENTATION ( '416007', ( #50, #101 ), #168 ) ;
#9 = PRODUCT_DEFINITION_SHAPE ( 'NONE', 'NONE',  #140 ) ;
#10 = DATE_AND_TIME ( #57, #170 ) ;
#11 = FACE_OUTER_BOUND ( 'NONE', #204, .T. ) ;
#12 = DIRECTION ( 'NONE',  ( -0.0000000000000000000, -0.0000000000000000000, -1.000000000000000000 ) ) ;
#13 = CARTESIAN_POINT ( 'NONE',  ( 0.0000000000000000000, 0.0000000000000000000, 0.0000000000000000000 ) ) ;
#14 = CALENDAR_DATE ( 2019, 21, 8 ) ;
#15 =( NAMED_UNIT ( * ) SI_UNIT ( $, .STERADIAN. ) SOLID_ANGLE_UNIT ( ) );
#16 = PRODUCT_DEFINITION_FORMATION_WITH_SPECIFIED_SOURCE ( 'ÈÎºÎ', '', #227, .NOT_KNOWN. ) ;
#17 = EDGE_CURVE ( 'NONE', #21, #242, #232, .T. ) ;
#18 = ORGANIZATION ( 'Î´Ö¸¶¨', 'Î´Ö¸¶¨', '' ) ;
#19 = UNCERTAINTY_MEASURE_WITH_UNIT (LENGTH_MEASURE( 1.000000000000000100E-005 ), #206, 'distance_accuracy_value', 'NONE');
#20 = COORDINATED_UNIVERSAL_TIME_OFFSET ( 8, 0, .AHEAD. ) ;
#21 = VERTEX_POINT ( 'NONE', #124 ) ;
#22 = APPROVAL_ROLE ( '' ) ;
#23 = DIRECTION ( 'NONE',  ( 0.0000000000000000000, 0.0000000000000000000, 1.000000000000000000 ) ) ;
#24 = PERSON ( 'Î´Ö¸¶¨', 'Î´Ö¸¶¨', 'Î´Ö¸¶¨', ('Î´Ö¸¶¨'), ('Î´Ö¸¶¨'), ('Î´Ö¸¶¨') ) ;
#25 = PERSON_AND_ORGANIZATION_ROLE ( 'design_owner' ) ;
#26 = MECHANICAL_CONTEXT ( 'NONE', #77, 'mechanical' ) ;
#27 = DIRECTION ( 'NONE',  ( 0.0000000000000000000, 0.0000000000000000000, 1.000000000000000000 ) ) ;
#28 = CALENDAR_DATE ( 2019, 21, 8 ) ;
#29 = LOCAL_TIME ( 14, 56, 54.00000000000000000, #253 ) ;
#30 = ORIENTED_EDGE ( 'NONE', *, *, #17, .T. ) ;
#31 = PLANE ( 'NONE',  #208 ) ;
#32 = CARTESIAN_POINT ( 'NONE',  ( 0.0000000000000000000, 0.0000000000000000000, 6.000000000000000000 ) ) ;
#33 = AXIS2_PLACEMENT_3D ( 'NONE', #228, #23, #218 ) ;
#34 = PRODUCT_DEFINITION_SHAPE ( 'NONE', 'NONE',  #74 ) ;
#35 = PERSON_AND_ORGANIZATION ( #24, #18 ) ;
#36 = LINE ( 'NONE', #187, #132 ) ;
#37 = PERSON_AND_ORGANIZATION ( #24, #18 ) ;
#38 = PERSON_AND_ORGANIZATION ( #24, #18 ) ;
#39 = DATE_TIME_ROLE ( 'classification_date' ) ;
#40 = CALENDAR_DATE ( 2019, 21, 8 ) ;
#41 = DIRECTION ( 'NONE',  ( 0.0000000000000000000, 0.0000000000000000000, 1.000000000000000000 ) ) ;
#42 = APPLICATION_CONTEXT ( 'configuration controlled 3d designs of mechanical parts and assemblies' ) ;
#43 = APPLICATION_CONTEXT ( 'configuration controlled 3d designs of mechanical parts and assemblies' ) ;
#44 = CC_DESIGN_APPROVAL ( #151, ( #74 ) ) ;
#45 = PERSON_AND_ORGANIZATION ( #24, #18 ) ;
#46 = DIRECTION ( 'NONE',  ( 1.000000000000000000, 0.0000000000000000000, 0.0000000000000000000 ) ) ;
#47 = APPROVAL_PERSON_ORGANIZATION ( #116, #251, #22 ) ;
#48 = COORDINATED_UNIVERSAL_TIME_OFFSET ( 8, 0, .AHEAD. ) ;
#49 = DIRECTION ( 'NONE',  ( 0.0000000000000000000, 0.0000000000000000000, 1.000000000000000000 ) ) ;
#50 = MANIFOLD_SOLID_BREP ( 'Í¹Ì¨-À­Éì1', #68 ) ;
#51 = DATE_AND_TIME ( #246, #154 ) ;
#52 = FACE_OUTER_BOUND ( 'NONE', #217, .T. ) ;
#53 = PERSON_AND_ORGANIZATION ( #24, #18 ) ;
#54 = FACE_OUTER_BOUND ( 'NONE', #164, .T. ) ;
#55 = CC_DESIGN_PERSON_AND_ORGANIZATION_ASSIGNMENT ( #175, #197, ( #162 ) ) ;
#56 = APPROVAL_STATUS ( 'not_yet_approved' ) ;
#57 = CALENDAR_DATE ( 2019, 21, 8 ) ;
#58 = PERSON_AND_ORGANIZATION ( #24, #18 ) ;
#59 = PERSON_AND_ORGANIZATION ( #24, #18 ) ;
#60 = APPROVAL_STATUS ( 'not_yet_approved' ) ;
#61 = AXIS2_PLACEMENT_3D ( 'NONE', #183, #92, #186 ) ;
#62 = COORDINATED_UNIVERSAL_TIME_OFFSET ( 8, 0, .AHEAD. ) ;
#63 = PERSON_AND_ORGANIZATION ( #24, #18 ) ;
#64 = SECURITY_CLASSIFICATION_LEVEL ( 'unclassified' ) ;
#65 = CARTESIAN_POINT ( 'NONE',  ( 0.0000000000000000000, 0.0000000000000000000, 6.000000000000000000 ) ) ;
#66 = AXIS2_PLACEMENT_3D ( 'NONE', #243, #7, #46 ) ;
#67 = COORDINATED_UNIVERSAL_TIME_OFFSET ( 8, 0, .AHEAD. ) ;
#68 = CLOSED_SHELL ( 'NONE', ( #211, #190, #153, #117 ) ) ;
#69 = CARTESIAN_POINT ( 'NONE',  ( -15.00000000000000000, 0.0000000000000000000, 6.000000000000000000 ) ) ;
#70 = EDGE_LOOP ( 'NONE', ( #87, #230, #171, #233 ) ) ;
#71 = CARTESIAN_POINT ( 'NONE',  ( 0.0000000000000000000, 0.0000000000000000000, 6.000000000000000000 ) ) ;
#72 = CC_DESIGN_PERSON_AND_ORGANIZATION_ASSIGNMENT ( #53, #219, ( #97 ) ) ;
#73 = VERTEX_POINT ( 'NONE', #69 ) ;
#74 = PRODUCT_DEFINITION ( 'Î´Öª', '', #162, #231 ) ;
#75 = APPROVAL_PERSON_ORGANIZATION ( #35, #151, #158 ) ;
#76 = CALENDAR_DATE ( 2019, 21, 8 ) ;
#77 = APPLICATION_CONTEXT ( 'configuration controlled 3d designs of mechanical parts and assemblies' ) ;
#78 = APPROVAL_ROLE ( '' ) ;
#79 = LINE ( 'NONE', #248, #220 ) ;
#80 = SHAPE_DEFINITION_REPRESENTATION ( #9, #8 ) ;
#81 = VERTEX_POINT ( 'NONE', #103 ) ;
#82 = PERSON_AND_ORGANIZATION_ROLE ( 'design_supplier' ) ;
#83 = PERSON_AND_ORGANIZATION_ROLE ( 'design_owner' ) ;
#84 = CC_DESIGN_DATE_AND_TIME_ASSIGNMENT ( #51, #39, ( #97 ) ) ;
#85 = EDGE_CURVE ( 'NONE', #81, #73, #107, .T. ) ;
#86 = PERSON_AND_ORGANIZATION ( #24, #18 ) ;
#87 = ORIENTED_EDGE ( 'NONE', *, *, #85, .F. ) ;
#88 = APPROVAL_PERSON_ORGANIZATION ( #58, #221, #78 ) ;
#89 = COORDINATED_UNIVERSAL_TIME_OFFSET ( 8, 0, .AHEAD. ) ;
#90 = CALENDAR_DATE ( 2019, 21, 8 ) ;
#91 = DATE_AND_TIME ( #90, #203 ) ;
#92 = DIRECTION ( 'NONE',  ( 0.0000000000000000000, 0.0000000000000000000, 1.000000000000000000 ) ) ;
#93 = DIRECTION ( 'NONE',  ( -1.000000000000000000, 0.0000000000000000000, 0.0000000000000000000 ) ) ;
#94 = CC_DESIGN_PERSON_AND_ORGANIZATION_ASSIGNMENT ( #155, #100, ( #74 ) ) ;
#95 = LOCAL_TIME ( 14, 56, 54.00000000000000000, #67 ) ;
#96 = LOCAL_TIME ( 14, 56, 54.00000000000000000, #105 ) ;
#97 = SECURITY_CLASSIFICATION ( '', '', #64 ) ;
#98 = PERSON_AND_ORGANIZATION ( #24, #18 ) ;
#99 = APPLICATION_PROTOCOL_DEFINITION ( 'international standard', 'config_control_design', 1994, #42 ) ;
#100 = PERSON_AND_ORGANIZATION_ROLE ( 'creator' ) ;
#101 = AXIS2_PLACEMENT_3D ( 'NONE', #13, #41, #120 ) ;
#102 = LOCAL_TIME ( 14, 56, 54.00000000000000000, #216 ) ;
#103 = CARTESIAN_POINT ( 'NONE',  ( 15.00000000000000000, 1.836970198721029600E-015, 6.000000000000000000 ) ) ;
#104 = DIRECTION ( 'NONE',  ( 1.000000000000000000, 0.0000000000000000000, 0.0000000000000000000 ) ) ;
#105 = COORDINATED_UNIVERSAL_TIME_OFFSET ( 8, 0, .AHEAD. ) ;
#106 = DATE_AND_TIME ( #76, #102 ) ;
#107 = CIRCLE ( 'NONE', #111, 15.00000000000000000 ) ;
#108 = DIRECTION ( 'NONE',  ( -0.0000000000000000000, -0.0000000000000000000, -1.000000000000000000 ) ) ;
#109 = DIRECTION ( 'NONE',  ( -1.000000000000000000, 0.0000000000000000000, 0.0000000000000000000 ) ) ;
#110 = APPROVAL ( #56, 'Î´Ö¸¶¨' ) ;
#111 = AXIS2_PLACEMENT_3D ( 'NONE', #71, #188, #112 ) ;
#112 = DIRECTION ( 'NONE',  ( 1.000000000000000000, 0.0000000000000000000, 0.0000000000000000000 ) ) ;
#113 = APPROVAL ( #198, 'Î´Ö¸¶¨' ) ;
#114 = ORIENTED_EDGE ( 'NONE', *, *, #235, .F. ) ;
#115 = PERSON_AND_ORGANIZATION ( #24, #18 ) ;
#116 = PERSON_AND_ORGANIZATION ( #24, #18 ) ;
#117 = ADVANCED_FACE ( 'NONE', ( #11 ), #31, .F. ) ;
#118 = ORIENTED_EDGE ( 'NONE', *, *, #224, .F. ) ;
#119 = DATE_AND_TIME ( #28, #176 ) ;
#120 = DIRECTION ( 'NONE',  ( 1.000000000000000000, 0.0000000000000000000, 0.0000000000000000000 ) ) ;
#121 = CC_DESIGN_APPROVAL ( #110, ( #172 ) ) ;
#122 = CC_DESIGN_APPROVAL ( #113, ( #97 ) ) ;
#123 = ORIENTED_EDGE ( 'NONE', *, *, #17, .F. ) ;
#124 = CARTESIAN_POINT ( 'NONE',  ( -15.00000000000000000, 0.0000000000000000000, 0.0000000000000000000 ) ) ;
#125 = DIRECTION ( 'NONE',  ( -0.0000000000000000000, -0.0000000000000000000, -1.000000000000000000 ) ) ;
#126 = DIRECTION ( 'NONE',  ( 0.0000000000000000000, 0.0000000000000000000, 1.000000000000000000 ) ) ;
#127 = AXIS2_PLACEMENT_3D ( 'NONE', #65, #125, #109 ) ;
#128 = CARTESIAN_POINT ( 'NONE',  ( 15.00000000000000000, 1.836970198721029600E-015, 0.0000000000000000000 ) ) ;
#129 = CC_DESIGN_APPROVAL ( #229, ( #140 ) ) ;
#130 = APPROVAL_DATE_TIME ( #106, #221 ) ;
#131 = COORDINATED_UNIVERSAL_TIME_OFFSET ( 8, 0, .AHEAD. ) ;
#132 = VECTOR ( 'NONE', #249, 1000.000000000000000 ) ;
#133 = CALENDAR_DATE ( 2019, 21, 8 ) ;
#134 = APPROVAL_ROLE ( '' ) ;
#135 = CC_DESIGN_SECURITY_CLASSIFICATION ( #97, ( #162 ) ) ;
#136 = ORIENTED_EDGE ( 'NONE', *, *, #85, .T. ) ;
#137 = APPLICATION_PROTOCOL_DEFINITION ( 'international standard', 'config_control_design', 1994, #160 ) ;
#138 = PERSON_AND_ORGANIZATION_ROLE ( 'design_supplier' ) ;
#139 = MECHANICAL_CONTEXT ( 'NONE', #42, 'mechanical' ) ;
#140 = PRODUCT_DEFINITION ( 'Î´Öª', '', #16, #194 ) ;
#141 = APPLICATION_PROTOCOL_DEFINITION ( 'international standard', 'config_control_design', 1994, #77 ) ;
#142 = LOCAL_TIME ( 14, 56, 54.00000000000000000, #48 ) ;
#143 = CC_DESIGN_PERSON_AND_ORGANIZATION_ASSIGNMENT ( #45, #214, ( #172 ) ) ;
#144 = APPROVAL_PERSON_ORGANIZATION ( #182, #229, #3 ) ;
#145 = DIRECTION ( 'NONE',  ( 1.000000000000000000, 0.0000000000000000000, 0.0000000000000000000 ) ) ;
#146 = CC_DESIGN_APPROVAL ( #251, ( #16 ) ) ;
#147 = LOCAL_TIME ( 14, 56, 54.00000000000000000, #89 ) ;
#148 = AXIS2_PLACEMENT_3D ( 'NONE', #32, #108, #93 ) ;
#149 = CYLINDRICAL_SURFACE ( 'NONE', #127, 15.00000000000000000 ) ;
#150 = CIRCLE ( 'NONE', #66, 15.00000000000000000 ) ;
#151 = APPROVAL ( #60, 'Î´Ö¸¶¨' ) ;
#152 = APPROVAL_PERSON_ORGANIZATION ( #185, #110, #134 ) ;
#153 = ADVANCED_FACE ( 'NONE', ( #52 ), #207, .T. ) ;
#154 = LOCAL_TIME ( 14, 56, 54.00000000000000000, #205 ) ;
#155 = PERSON_AND_ORGANIZATION ( #24, #18 ) ;
#156 = ORIENTED_EDGE ( 'NONE', *, *, #191, .T. ) ;
#157 = PERSON_AND_ORGANIZATION_ROLE ( 'creator' ) ;
#158 = APPROVAL_ROLE ( '' ) ;
#159 = DATE_AND_TIME ( #247, #96 ) ;
#160 = APPLICATION_CONTEXT ( 'configuration controlled 3d designs of mechanical parts and assemblies' ) ;
#161 = CC_DESIGN_PERSON_AND_ORGANIZATION_ASSIGNMENT ( #37, #157, ( #16 ) ) ;
#162 = PRODUCT_DEFINITION_FORMATION_WITH_SPECIFIED_SOURCE ( 'ÈÎºÎ', '', #234, .NOT_KNOWN. ) ;
#163 = CYLINDRICAL_SURFACE ( 'NONE', #148, 15.00000000000000000 ) ;
#164 = EDGE_LOOP ( 'NONE', ( #114, #118, #156, #30 ) ) ;
#165 = APPROVAL_DATE_TIME ( #119, #229 ) ;
#166 = APPROVAL_PERSON_ORGANIZATION ( #38, #113, #180 ) ;
#167 = DIRECTION ( 'NONE',  ( 1.000000000000000000, 0.0000000000000000000, -0.0000000000000000000 ) ) ;
#168 =( GEOMETRIC_REPRESENTATION_CONTEXT ( 3 ) GLOBAL_UNCERTAINTY_ASSIGNED_CONTEXT ( ( #19 ) ) GLOBAL_UNIT_ASSIGNED_CONTEXT ( ( #206, #226, #15 ) ) REPRESENTATION_CONTEXT ( 'NONE', 'WORKASPACE' ) );
#169 = CARTESIAN_POINT ( 'NONE',  ( 0.0000000000000000000, 0.0000000000000000000, 0.0000000000000000000 ) ) ;
#170 = LOCAL_TIME ( 14, 56, 54.00000000000000000, #20 ) ;
#171 = ORIENTED_EDGE ( 'NONE', *, *, #5, .T. ) ;
#172 = SECURITY_CLASSIFICATION ( '', '', #177 ) ;
#173 = CC_DESIGN_PERSON_AND_ORGANIZATION_ASSIGNMENT ( #98, #83, ( #227 ) ) ;
#174 = ORIENTED_EDGE ( 'NONE', *, *, #224, .T. ) ;
#175 = PERSON_AND_ORGANIZATION ( #24, #18 ) ;
#176 = LOCAL_TIME ( 14, 56, 54.00000000000000000, #131 ) ;
#177 = SECURITY_CLASSIFICATION_LEVEL ( 'unclassified' ) ;
#178 = APPROVAL_STATUS ( 'not_yet_approved' ) ;
#179 = CC_DESIGN_PERSON_AND_ORGANIZATION_ASSIGNMENT ( #86, #25, ( #234 ) ) ;
#180 = APPROVAL_ROLE ( '' ) ;
#181 = CC_DESIGN_PERSON_AND_ORGANIZATION_ASSIGNMENT ( #59, #215, ( #140 ) ) ;
#182 = PERSON_AND_ORGANIZATION ( #24, #18 ) ;
#183 = CARTESIAN_POINT ( 'NONE',  ( 0.0000000000000000000, 0.0000000000000000000, 6.000000000000000000 ) ) ;
#184 = CIRCLE ( 'NONE', #189, 15.00000000000000000 ) ;
#185 = PERSON_AND_ORGANIZATION ( #24, #18 ) ;
#186 = DIRECTION ( 'NONE',  ( 1.000000000000000000, 0.0000000000000000000, -0.0000000000000000000 ) ) ;
#187 = CARTESIAN_POINT ( 'NONE',  ( -15.00000000000000000, 0.0000000000000000000, 6.000000000000000000 ) ) ;
#188 = DIRECTION ( 'NONE',  ( 0.0000000000000000000, 0.0000000000000000000, 1.000000000000000000 ) ) ;
#189 = AXIS2_PLACEMENT_3D ( 'NONE', #225, #126, #145 ) ;
#190 = ADVANCED_FACE ( 'NONE', ( #54 ), #149, .T. ) ;
#191 = EDGE_CURVE ( 'NONE', #73, #21, #36, .T. ) ;
#192 = CC_DESIGN_DATE_AND_TIME_ASSIGNMENT ( #159, #4, ( #74 ) ) ;
#193 = APPROVAL_DATE_TIME ( #212, #113 ) ;
#194 = DESIGN_CONTEXT ( 'detailed design', #160, 'design' ) ;
#195 = APPROVAL_STATUS ( 'not_yet_approved' ) ;
#196 = APPLICATION_PROTOCOL_DEFINITION ( 'international standard', 'config_control_design', 1994, #43 ) ;
#197 = PERSON_AND_ORGANIZATION_ROLE ( 'creator' ) ;
#198 = APPROVAL_STATUS ( 'not_yet_approved' ) ;
#199 = DATE_AND_TIME ( #133, #29 ) ;
#200 = CC_DESIGN_SECURITY_CLASSIFICATION ( #172, ( #16 ) ) ;
#201 = CARTESIAN_POINT ( 'NONE',  ( 0.0000000000000000000, 0.0000000000000000000, 0.0000000000000000000 ) ) ;
#202 = PRODUCT_RELATED_PRODUCT_CATEGORY ( 'detail', '', ( #234 ) ) ;
#203 = LOCAL_TIME ( 14, 56, 54.00000000000000000, #62 ) ;
#204 = EDGE_LOOP ( 'NONE', ( #123, #223 ) ) ;
#205 = COORDINATED_UNIVERSAL_TIME_OFFSET ( 8, 0, .AHEAD. ) ;
#206 =( LENGTH_UNIT ( ) NAMED_UNIT ( * ) SI_UNIT ( .MILLI., .METRE. ) );
#207 = PLANE ( 'NONE',  #61 ) ;
#208 = AXIS2_PLACEMENT_3D ( 'NONE', #169, #49, #167 ) ;
#209 = APPROVAL_DATE_TIME ( #199, #110 ) ;
#210 = APPROVAL_DATE_TIME ( #10, #151 ) ;
#211 = ADVANCED_FACE ( 'NONE', ( #240 ), #163, .T. ) ;
#212 = DATE_AND_TIME ( #14, #95 ) ;
#213 = DATE_TIME_ROLE ( 'classification_date' ) ;
#214 = PERSON_AND_ORGANIZATION_ROLE ( 'classification_officer' ) ;
#215 = PERSON_AND_ORGANIZATION_ROLE ( 'creator' ) ;
#216 = COORDINATED_UNIVERSAL_TIME_OFFSET ( 8, 0, .AHEAD. ) ;
#217 = EDGE_LOOP ( 'NONE', ( #174, #136 ) ) ;
#218 = DIRECTION ( 'NONE',  ( 1.000000000000000000, 0.0000000000000000000, 0.0000000000000000000 ) ) ;
#219 = PERSON_AND_ORGANIZATION_ROLE ( 'classification_officer' ) ;
#220 = VECTOR ( 'NONE', #12, 1000.000000000000000 ) ;
#221 = APPROVAL ( #178, 'Î´Ö¸¶¨' ) ;
#222 = CC_DESIGN_DATE_AND_TIME_ASSIGNMENT ( #2, #252, ( #140 ) ) ;
#223 = ORIENTED_EDGE ( 'NONE', *, *, #5, .F. ) ;
#224 = EDGE_CURVE ( 'NONE', #73, #81, #184, .T. ) ;
#225 = CARTESIAN_POINT ( 'NONE',  ( 0.0000000000000000000, 0.0000000000000000000, 6.000000000000000000 ) ) ;
#226 =( NAMED_UNIT ( * ) PLANE_ANGLE_UNIT ( ) SI_UNIT ( $, .RADIAN. ) );
#227 = PRODUCT ( '416007', '416007', '', ( #139 ) ) ;
#228 = CARTESIAN_POINT ( 'NONE',  ( 0.0000000000000000000, 0.0000000000000000000, 0.0000000000000000000 ) ) ;
#229 = APPROVAL ( #195, 'Î´Ö¸¶¨' ) ;
#230 = ORIENTED_EDGE ( 'NONE', *, *, #235, .T. ) ;
#231 = DESIGN_CONTEXT ( 'detailed design', #43, 'design' ) ;
#232 = CIRCLE ( 'NONE', #236, 15.00000000000000000 ) ;
#233 = ORIENTED_EDGE ( 'NONE', *, *, #191, .F. ) ;
#234 = PRODUCT ( '416007', '416007', '', ( #26 ) ) ;
#235 = EDGE_CURVE ( 'NONE', #81, #242, #79, .T. ) ;
#236 = AXIS2_PLACEMENT_3D ( 'NONE', #201, #27, #104 ) ;
#237 = CC_DESIGN_APPROVAL ( #221, ( #162 ) ) ;
#238 = CC_DESIGN_DATE_AND_TIME_ASSIGNMENT ( #241, #213, ( #172 ) ) ;
#239 = APPROVAL_STATUS ( 'not_yet_approved' ) ;
#240 = FACE_OUTER_BOUND ( 'NONE', #70, .T. ) ;
#241 = DATE_AND_TIME ( #40, #142 ) ;
#242 = VERTEX_POINT ( 'NONE', #128 ) ;
#243 = CARTESIAN_POINT ( 'NONE',  ( 0.0000000000000000000, 0.0000000000000000000, 0.0000000000000000000 ) ) ;
#244 = CC_DESIGN_PERSON_AND_ORGANIZATION_ASSIGNMENT ( #63, #138, ( #16 ) ) ;
#245 = APPROVAL_DATE_TIME ( #91, #251 ) ;
#246 = CALENDAR_DATE ( 2019, 21, 8 ) ;
#247 = CALENDAR_DATE ( 2019, 21, 8 ) ;
#248 = CARTESIAN_POINT ( 'NONE',  ( 15.00000000000000000, 1.836970198721029600E-015, 6.000000000000000000 ) ) ;
#249 = DIRECTION ( 'NONE',  ( -0.0000000000000000000, -0.0000000000000000000, -1.000000000000000000 ) ) ;
#250 = PRODUCT_RELATED_PRODUCT_CATEGORY ( 'detail', '', ( #227 ) ) ;
#251 = APPROVAL ( #239, 'Î´Ö¸¶¨' ) ;
#252 = DATE_TIME_ROLE ( 'creation_date' ) ;
#253 = COORDINATED_UNIVERSAL_TIME_OFFSET ( 8, 0, .AHEAD. ) ;
ENDSEC;
END-ISO-10303-21;
