ISO-10303-21;
HEADER;
FILE_DESCRIPTION (( 'STEP AP214' ),
    '1' );
FILE_NAME ('432504.STEP',
    '2019-08-26T08:41:51',
    ( 'user' ),
    ( 'Î¢ÈíÖÐ¹ú' ),
    'SwSTEP 2.0',
    'SolidWorks 2016',
    '' );
FILE_SCHEMA (( 'AUTOMOTIVE_DESIGN' ));
ENDSEC;

DATA;
#1 = CARTESIAN_POINT ( 'NONE',  ( 0.0000000000000000000, 0.0000000000000000000, 0.0000000000000000000 ) ) ;
#2 = CARTESIAN_POINT ( 'NONE',  ( 0.0000000000000000000, 7.776507174585864700E-016, -6.350000000000140000 ) ) ;
#3 = DIRECTION ( 'NONE',  ( 0.0000000000000000000, 0.0000000000000000000, 1.000000000000000000 ) ) ;
#4 = PRODUCT_DEFINITION_FORMATION_WITH_SPECIFIED_SOURCE ( 'ÈÎºÎ', '', #59, .NOT_KNOWN. ) ;
#5 = SHAPE_DEFINITION_REPRESENTATION ( #13, #160 ) ;
#6 = DIRECTION ( 'NONE',  ( 0.0000000000000000000, 1.000000000000000000, 0.0000000000000000000 ) ) ;
#7 = CIRCLE ( 'NONE', #29, 6.349999999999999600 ) ;
#8 = DIRECTION ( 'NONE',  ( -1.000000000000000000, -0.0000000000000000000, -0.0000000000000000000 ) ) ;
#9 = PRODUCT_CONTEXT ( 'NONE', #152, 'mechanical' ) ;
#10 = AXIS2_PLACEMENT_3D ( 'NONE', #89, #140, #100 ) ;
#11 = PRESENTATION_STYLE_ASSIGNMENT (( #33 ) ) ;
#12 = ORIENTED_EDGE ( 'NONE', *, *, #75, .T. ) ;
#13 = PRODUCT_DEFINITION_SHAPE ( 'NONE', 'NONE',  #64 ) ;
#14 = DIRECTION ( 'NONE',  ( 1.000000000000000000, 0.0000000000000000000, 0.0000000000000000000 ) ) ;
#15 = DIRECTION ( 'NONE',  ( 0.0000000000000000000, 0.0000000000000000000, -1.000000000000000000 ) ) ;
#16 = DIRECTION ( 'NONE',  ( -1.000000000000000000, -0.0000000000000000000, -0.0000000000000000000 ) ) ;
#17 = ADVANCED_FACE ( 'NONE', ( #81 ), #25, .F. ) ;
#18 = AXIS2_PLACEMENT_3D ( 'NONE', #78, #16, #43 ) ;
#19 = VERTEX_POINT ( 'NONE', #94 ) ;
#20 = CARTESIAN_POINT ( 'NONE',  ( 3.140000000000031700, 0.0000000000000000000, 3.061616997868383100E-014 ) ) ;
#21 = SURFACE_SIDE_STYLE ('',( #135 ) ) ;
#22 = CARTESIAN_POINT ( 'NONE',  ( 0.0000000000000000000, 0.0000000000000000000, 6.350000000000140000 ) ) ;
#23 = EDGE_LOOP ( 'NONE', ( #88, #148, #166, #106 ) ) ;
#24 = STYLED_ITEM ( 'NONE', ( #116 ), #160 ) ;
#25 = SPHERICAL_SURFACE ( 'NONE', #120, 500.0000000000000000 ) ;
#26 = CARTESIAN_POINT ( 'NONE',  ( 503.1400000000000400, 0.0000000000000000000, 0.0000000000000000000 ) ) ;
#27 = FILL_AREA_STYLE ('',( #69 ) ) ;
#28 = DIRECTION ( 'NONE',  ( -1.000000000000000000, -0.0000000000000000000, -0.0000000000000000000 ) ) ;
#29 = AXIS2_PLACEMENT_3D ( 'NONE', #98, #131, #76 ) ;
#30 = ORIENTED_EDGE ( 'NONE', *, *, #103, .T. ) ;
#31 = ORIENTED_EDGE ( 'NONE', *, *, #123, .F. ) ;
#32 = MECHANICAL_DESIGN_GEOMETRIC_PRESENTATION_REPRESENTATION (  '', ( #24 ), #164 ) ;
#33 = SURFACE_STYLE_USAGE ( .BOTH. , #21 ) ;
#34 = CARTESIAN_POINT ( 'NONE',  ( 503.1400000000000400, 0.0000000000000000000, 0.0000000000000000000 ) ) ;
#35 = ADVANCED_FACE ( 'NONE', ( #158 ), #122, .T. ) ;
#36 = DIRECTION ( 'NONE',  ( 0.0000000000000000000, -1.000000000000000000, 0.0000000000000000000 ) ) ;
#37 = CARTESIAN_POINT ( 'NONE',  ( 0.0000000000000000000, 0.0000000000000000000, 0.0000000000000000000 ) ) ;
#38 = DIRECTION ( 'NONE',  ( 0.0000000000000000000, 0.0000000000000000000, -1.000000000000000000 ) ) ;
#39 = DIRECTION ( 'NONE',  ( 0.0000000000000000000, 0.0000000000000000000, 1.000000000000000000 ) ) ;
#40 = SPHERICAL_SURFACE ( 'NONE', #108, 500.0000000000000000 ) ;
#41 = CARTESIAN_POINT ( 'NONE',  ( 503.1400000000000400, 0.0000000000000000000, 0.0000000000000000000 ) ) ;
#42 =( NAMED_UNIT ( * ) PLANE_ANGLE_UNIT ( ) SI_UNIT ( $, .RADIAN. ) );
#43 = DIRECTION ( 'NONE',  ( 0.0000000000000000000, 0.0000000000000000000, 1.000000000000000000 ) ) ;
#44 = FILL_AREA_STYLE_COLOUR ( '', #146 ) ;
#45 =( GEOMETRIC_REPRESENTATION_CONTEXT ( 3 ) GLOBAL_UNCERTAINTY_ASSIGNED_CONTEXT ( ( #51 ) ) GLOBAL_UNIT_ASSIGNED_CONTEXT ( ( #62, #141, #136 ) ) REPRESENTATION_CONTEXT ( 'NONE', 'WORKASPACE' ) );
#46 = EDGE_CURVE ( 'NONE', #68, #19, #155, .T. ) ;
#47 = CARTESIAN_POINT ( 'NONE',  ( 3.180324126035194400, 0.0000000000000000000, 0.0000000000000000000 ) ) ;
#48 =( NAMED_UNIT ( * ) PLANE_ANGLE_UNIT ( ) SI_UNIT ( $, .RADIAN. ) );
#49 = DIRECTION ( 'NONE',  ( -1.000000000000000000, -0.0000000000000000000, -0.0000000000000000000 ) ) ;
#50 = PRESENTATION_LAYER_ASSIGNMENT (  '', '', ( #24 ) ) ;
#51 = UNCERTAINTY_MEASURE_WITH_UNIT (LENGTH_MEASURE( 1.000000000000000100E-005 ), #62, 'distance_accuracy_value', 'NONE');
#52 = CARTESIAN_POINT ( 'NONE',  ( 0.0000000000000000000, 0.0000000000000000000, 0.0000000000000000000 ) ) ;
#53 =( LENGTH_UNIT ( ) NAMED_UNIT ( * ) SI_UNIT ( .MILLI., .METRE. ) );
#54 = AXIS2_PLACEMENT_3D ( 'NONE', #1, #14, #15 ) ;
#55 = APPLICATION_PROTOCOL_DEFINITION ( 'draft international standard', 'automotive_design', 1998, #96 ) ;
#56 = SURFACE_STYLE_USAGE ( .BOTH. , #144 ) ;
#57 = EDGE_LOOP ( 'NONE', ( #147, #159 ) ) ;
#58 =( NAMED_UNIT ( * ) SI_UNIT ( $, .STERADIAN. ) SOLID_ANGLE_UNIT ( ) );
#59 = PRODUCT ( '432504', '432504', '', ( #9 ) ) ;
#60 =( GEOMETRIC_REPRESENTATION_CONTEXT ( 3 ) GLOBAL_UNCERTAINTY_ASSIGNED_CONTEXT ( ( #145 ) ) GLOBAL_UNIT_ASSIGNED_CONTEXT ( ( #102, #42, #58 ) ) REPRESENTATION_CONTEXT ( 'NONE', 'WORKASPACE' ) );
#61 = CARTESIAN_POINT ( 'NONE',  ( 3.180324126035194400, 7.776507174586969100E-016, -6.350000000001042400 ) ) ;
#62 =( LENGTH_UNIT ( ) NAMED_UNIT ( * ) SI_UNIT ( .MILLI., .METRE. ) );
#63 = CIRCLE ( 'NONE', #118, 6.349999999999999600 ) ;
#64 = PRODUCT_DEFINITION ( 'Î´Öª', '', #4, #111 ) ;
#65 = ORIENTED_EDGE ( 'NONE', *, *, #151, .F. ) ;
#66 = STYLED_ITEM ( 'NONE', ( #11 ), #67 ) ;
#67 = MANIFOLD_SOLID_BREP ( 'Ðý×ª1', #137 ) ;
#68 = VERTEX_POINT ( 'NONE', #61 ) ;
#69 = FILL_AREA_STYLE_COLOUR ( '', #90 ) ;
#70 = CIRCLE ( 'NONE', #99, 500.0000000000000000 ) ;
#71 = DIRECTION ( 'NONE',  ( 0.0000000000000000000, 0.0000000000000000000, 1.000000000000000000 ) ) ;
#72 = PLANE ( 'NONE',  #54 ) ;
#73 = ADVANCED_FACE ( 'NONE', ( #128 ), #72, .F. ) ;
#74 = CARTESIAN_POINT ( 'NONE',  ( 3.180324126035194400, 0.0000000000000000000, 6.350000000001042400 ) ) ;
#75 = EDGE_CURVE ( 'NONE', #157, #154, #121, .T. ) ;
#76 = DIRECTION ( 'NONE',  ( 0.0000000000000000000, 0.0000000000000000000, 1.000000000000000000 ) ) ;
#77 = UNCERTAINTY_MEASURE_WITH_UNIT (LENGTH_MEASURE( 1.000000000000000100E-005 ), #53, 'distance_accuracy_value', 'NONE');
#78 = CARTESIAN_POINT ( 'NONE',  ( 3.180324126035194400, 0.0000000000000000000, 0.0000000000000000000 ) ) ;
#79 = DIRECTION ( 'NONE',  ( -1.000000000000000000, -0.0000000000000000000, -0.0000000000000000000 ) ) ;
#80 = PRESENTATION_LAYER_ASSIGNMENT (  '', '', ( #66 ) ) ;
#81 = FACE_OUTER_BOUND ( 'NONE', #93, .T. ) ;
#82 = AXIS2_PLACEMENT_3D ( 'NONE', #52, #87, #127 ) ;
#83 =( NAMED_UNIT ( * ) SI_UNIT ( $, .STERADIAN. ) SOLID_ANGLE_UNIT ( ) );
#84 = VERTEX_POINT ( 'NONE', #20 ) ;
#85 = CARTESIAN_POINT ( 'NONE',  ( 503.1400000000000400, 0.0000000000000000000, 0.0000000000000000000 ) ) ;
#86 = VECTOR ( 'NONE', #79, 1000.000000000000000 ) ;
#87 = DIRECTION ( 'NONE',  ( 0.0000000000000000000, 0.0000000000000000000, 1.000000000000000000 ) ) ;
#88 = ORIENTED_EDGE ( 'NONE', *, *, #151, .T. ) ;
#89 = CARTESIAN_POINT ( 'NONE',  ( 0.0000000000000000000, 0.0000000000000000000, 0.0000000000000000000 ) ) ;
#90 = COLOUR_RGB ( '',1.000000000000000000, 1.000000000000000000, 1.000000000000000000 ) ;
#91 = SURFACE_STYLE_FILL_AREA ( #27 ) ;
#92 = AXIS2_PLACEMENT_3D ( 'NONE', #47, #49, #71 ) ;
#93 = EDGE_LOOP ( 'NONE', ( #115, #65, #142 ) ) ;
#94 = CARTESIAN_POINT ( 'NONE',  ( 0.0000000000000000000, 7.776507174585778000E-016, -6.349999999999999600 ) ) ;
#95 = EDGE_CURVE ( 'NONE', #157, #84, #162, .T. ) ;
#96 = APPLICATION_CONTEXT ( 'automotive_design' ) ;
#97 = ORIENTED_EDGE ( 'NONE', *, *, #132, .T. ) ;
#98 = CARTESIAN_POINT ( 'NONE',  ( 0.0000000000000000000, 0.0000000000000000000, 0.0000000000000000000 ) ) ;
#99 = AXIS2_PLACEMENT_3D ( 'NONE', #85, #153, #112 ) ;
#100 = DIRECTION ( 'NONE',  ( 0.0000000000000000000, 0.0000000000000000000, 1.000000000000000000 ) ) ;
#101 = CYLINDRICAL_SURFACE ( 'NONE', #10, 6.350000000000140000 ) ;
#102 =( LENGTH_UNIT ( ) NAMED_UNIT ( * ) SI_UNIT ( .MILLI., .METRE. ) );
#103 = EDGE_CURVE ( 'NONE', #68, #157, #134, .T. ) ;
#104 = CARTESIAN_POINT ( 'NONE',  ( 0.0000000000000000000, 0.0000000000000000000, 0.0000000000000000000 ) ) ;
#105 = CIRCLE ( 'NONE', #18, 6.350000000000281200 ) ;
#106 = ORIENTED_EDGE ( 'NONE', *, *, #75, .F. ) ;
#107 = AXIS2_PLACEMENT_3D ( 'NONE', #37, #165, #39 ) ;
#108 = AXIS2_PLACEMENT_3D ( 'NONE', #41, #6, #113 ) ;
#109 = AXIS2_PLACEMENT_3D ( 'NONE', #34, #36, #38 ) ;
#110 = EDGE_CURVE ( 'NONE', #154, #19, #63, .T. ) ;
#111 = PRODUCT_DEFINITION_CONTEXT ( 'detailed design', #96, 'design' ) ;
#112 = DIRECTION ( 'NONE',  ( 0.0000000000000000000, -1.224646799147353200E-016, 1.000000000000000000 ) ) ;
#113 = DIRECTION ( 'NONE',  ( 0.0000000000000000000, 0.0000000000000000000, 1.000000000000000000 ) ) ;
#114 = CARTESIAN_POINT ( 'NONE',  ( 0.0000000000000000000, 0.0000000000000000000, 6.349999999999999600 ) ) ;
#115 = ORIENTED_EDGE ( 'NONE', *, *, #132, .F. ) ;
#116 = PRESENTATION_STYLE_ASSIGNMENT (( #56 ) ) ;
#117 = FACE_OUTER_BOUND ( 'NONE', #163, .T. ) ;
#118 = AXIS2_PLACEMENT_3D ( 'NONE', #104, #8, #150 ) ;
#119 = ORIENTED_EDGE ( 'NONE', *, *, #103, .F. ) ;
#120 = AXIS2_PLACEMENT_3D ( 'NONE', #26, #161, #3 ) ;
#121 = LINE ( 'NONE', #22, #143 ) ;
#122 = CYLINDRICAL_SURFACE ( 'NONE', #107, 6.350000000000140000 ) ;
#123 = EDGE_CURVE ( 'NONE', #19, #154, #7, .T. ) ;
#124 = FILL_AREA_STYLE ('',( #44 ) ) ;
#125 = ORIENTED_EDGE ( 'NONE', *, *, #95, .F. ) ;
#126 = ADVANCED_FACE ( 'NONE', ( #130 ), #40, .F. ) ;
#127 = DIRECTION ( 'NONE',  ( 1.000000000000000000, 0.0000000000000000000, 0.0000000000000000000 ) ) ;
#128 = FACE_OUTER_BOUND ( 'NONE', #57, .T. ) ;
#129 = ORIENTED_EDGE ( 'NONE', *, *, #46, .F. ) ;
#130 = FACE_OUTER_BOUND ( 'NONE', #133, .T. ) ;
#131 = DIRECTION ( 'NONE',  ( -1.000000000000000000, -0.0000000000000000000, -0.0000000000000000000 ) ) ;
#132 = EDGE_CURVE ( 'NONE', #68, #84, #70, .T. ) ;
#133 = EDGE_LOOP ( 'NONE', ( #119, #97, #125 ) ) ;
#134 = CIRCLE ( 'NONE', #92, 6.350000000000281200 ) ;
#135 = SURFACE_STYLE_FILL_AREA ( #124 ) ;
#136 =( NAMED_UNIT ( * ) SI_UNIT ( $, .STERADIAN. ) SOLID_ANGLE_UNIT ( ) );
#137 = CLOSED_SHELL ( 'NONE', ( #35, #126, #73, #17, #139 ) ) ;
#138 = MECHANICAL_DESIGN_GEOMETRIC_PRESENTATION_REPRESENTATION (  '', ( #66 ), #60 ) ;
#139 = ADVANCED_FACE ( 'NONE', ( #117 ), #101, .T. ) ;
#140 = DIRECTION ( 'NONE',  ( -1.000000000000000000, -0.0000000000000000000, -0.0000000000000000000 ) ) ;
#141 =( NAMED_UNIT ( * ) PLANE_ANGLE_UNIT ( ) SI_UNIT ( $, .RADIAN. ) );
#142 = ORIENTED_EDGE ( 'NONE', *, *, #95, .T. ) ;
#143 = VECTOR ( 'NONE', #28, 1000.000000000000000 ) ;
#144 = SURFACE_SIDE_STYLE ('',( #91 ) ) ;
#145 = UNCERTAINTY_MEASURE_WITH_UNIT (LENGTH_MEASURE( 1.000000000000000100E-005 ), #102, 'distance_accuracy_value', 'NONE');
#146 = COLOUR_RGB ( '',1.000000000000000000, 1.000000000000000000, 1.000000000000000000 ) ;
#147 = ORIENTED_EDGE ( 'NONE', *, *, #110, .T. ) ;
#148 = ORIENTED_EDGE ( 'NONE', *, *, #46, .T. ) ;
#149 = PRODUCT_RELATED_PRODUCT_CATEGORY ( 'part', '', ( #59 ) ) ;
#150 = DIRECTION ( 'NONE',  ( 0.0000000000000000000, 0.0000000000000000000, 1.000000000000000000 ) ) ;
#151 = EDGE_CURVE ( 'NONE', #157, #68, #105, .T. ) ;
#152 = APPLICATION_CONTEXT ( 'automotive_design' ) ;
#153 = DIRECTION ( 'NONE',  ( -0.0000000000000000000, 1.000000000000000000, 1.224646799147353200E-016 ) ) ;
#154 = VERTEX_POINT ( 'NONE', #114 ) ;
#155 = LINE ( 'NONE', #2, #86 ) ;
#156 = APPLICATION_PROTOCOL_DEFINITION ( 'draft international standard', 'automotive_design', 1998, #152 ) ;
#157 = VERTEX_POINT ( 'NONE', #74 ) ;
#158 = FACE_OUTER_BOUND ( 'NONE', #23, .T. ) ;
#159 = ORIENTED_EDGE ( 'NONE', *, *, #123, .T. ) ;
#160 = ADVANCED_BREP_SHAPE_REPRESENTATION ( '432504', ( #67, #82 ), #45 ) ;
#161 = DIRECTION ( 'NONE',  ( 0.0000000000000000000, 1.000000000000000000, 0.0000000000000000000 ) ) ;
#162 = CIRCLE ( 'NONE', #109, 500.0000000000000000 ) ;
#163 = EDGE_LOOP ( 'NONE', ( #129, #30, #12, #31 ) ) ;
#164 =( GEOMETRIC_REPRESENTATION_CONTEXT ( 3 ) GLOBAL_UNCERTAINTY_ASSIGNED_CONTEXT ( ( #77 ) ) GLOBAL_UNIT_ASSIGNED_CONTEXT ( ( #53, #48, #83 ) ) REPRESENTATION_CONTEXT ( 'NONE', 'WORKASPACE' ) );
#165 = DIRECTION ( 'NONE',  ( -1.000000000000000000, -0.0000000000000000000, -0.0000000000000000000 ) ) ;
#166 = ORIENTED_EDGE ( 'NONE', *, *, #110, .F. ) ;
ENDSEC;
END-ISO-10303-21;
