ISO-10303-21;
HEADER;
FILE_DESCRIPTION (( 'STEP AP214' ),
    '1' );
FILE_NAME ('435002.STEP',
    '2020-03-11T09:32:30',
    ( '' ),
    ( '' ),
    'SwSTEP 2.0',
    'SolidWorks 2016',
    '' );
FILE_SCHEMA (( 'AUTOMOTIVE_DESIGN' ));
ENDSEC;

DATA;
#1 = ORIENTED_EDGE ( 'NONE', *, *, #211, .T. ) ;
#2 = LINE ( 'NONE', #127, #189 ) ;
#3 = EDGE_CURVE ( 'NONE', #39, #182, #113, .T. ) ;
#4 = SURFACE_STYLE_FILL_AREA ( #222 ) ;
#5 = PRESENTATION_LAYER_ASSIGNMENT (  '', '', ( #217 ) ) ;
#6 =( NAMED_UNIT ( * ) SI_UNIT ( $, .STERADIAN. ) SOLID_ANGLE_UNIT ( ) );
#7 = SURFACE_SIDE_STYLE ('',( #4 ) ) ;
#8 = APPLICATION_CONTEXT ( 'automotive_design' ) ;
#9 = PLANE ( 'NONE',  #230 ) ;
#10 = ORIENTED_EDGE ( 'NONE', *, *, #17, .F. ) ;
#11 = DIRECTION ( 'NONE',  ( -0.9999308645852543800, 0.01175865850279591100, 0.0000000000000000000 ) ) ;
#12 = CARTESIAN_POINT ( 'NONE',  ( -14.29999999999999900, 0.1681604424319128000, 3.200000000000000200 ) ) ;
#13 = ORIENTED_EDGE ( 'NONE', *, *, #69, .T. ) ;
#14 = DIRECTION ( 'NONE',  ( -1.000000000000000000, 2.426186679687842200E-016, 0.0000000000000000000 ) ) ;
#15 = DIRECTION ( 'NONE',  ( 0.0000000000000000000, 0.0000000000000000000, 1.000000000000000000 ) ) ;
#16 = CARTESIAN_POINT ( 'NONE',  ( 14.30000000000000100, 14.46816044243190500, 0.0000000000000000000 ) ) ;
#17 = EDGE_CURVE ( 'NONE', #141, #234, #46, .T. ) ;
#18 = EDGE_LOOP ( 'NONE', ( #75, #85, #162, #10, #132 ) ) ;
#19 = STYLED_ITEM ( 'NONE', ( #136 ), #40 ) ;
#20 = LINE ( 'NONE', #25, #120 ) ;
#21 = ORIENTED_EDGE ( 'NONE', *, *, #29, .T. ) ;
#22 = VERTEX_POINT ( 'NONE', #35 ) ;
#23 = CARTESIAN_POINT ( 'NONE',  ( 0.0000000000000000000, 0.0000000000000000000, 0.0000000000000000000 ) ) ;
#24 = PRODUCT ( '435002', '435002', '', ( #99 ) ) ;
#25 = CARTESIAN_POINT ( 'NONE',  ( -14.30000000000000100, 14.46816044243191300, 3.200000000000000200 ) ) ;
#26 = DIRECTION ( 'NONE',  ( -2.426186679687842200E-016, -1.000000000000000000, 0.0000000000000000000 ) ) ;
#27 = DIRECTION ( 'NONE',  ( -0.01175865850279590700, 0.9999308645852546000, 0.0000000000000000000 ) ) ;
#28 = FACE_OUTER_BOUND ( 'NONE', #188, .T. ) ;
#29 = EDGE_CURVE ( 'NONE', #152, #122, #2, .T. ) ;
#30 = ORIENTED_EDGE ( 'NONE', *, *, #168, .T. ) ;
#31 = EDGE_LOOP ( 'NONE', ( #44, #79, #121, #110 ) ) ;
#32 = VECTOR ( 'NONE', #159, 1000.000000000000200 ) ;
#33 = DIRECTION ( 'NONE',  ( 1.213093339843921600E-016, 1.000000000000000000, -0.0000000000000000000 ) ) ;
#34 = CARTESIAN_POINT ( 'NONE',  ( -14.29999999999999900, 0.1681604424319128000, 3.200000000000000200 ) ) ;
#35 = CARTESIAN_POINT ( 'NONE',  ( 0.0000000000000000000, 0.0000000000000000000, 3.200000000000000200 ) ) ;
#36 = PLANE ( 'NONE',  #204 ) ;
#37 = VECTOR ( 'NONE', #84, 1000.000000000000000 ) ;
#38 = FACE_OUTER_BOUND ( 'NONE', #18, .T. ) ;
#39 = VERTEX_POINT ( 'NONE', #163 ) ;
#40 = MANIFOLD_SOLID_BREP ( 'Í¹Ì¨-À­Éì1', #221 ) ;
#41 = EDGE_LOOP ( 'NONE', ( #106, #1, #21, #138, #13 ) ) ;
#42 = LINE ( 'NONE', #66, #37 ) ;
#43 = FACE_OUTER_BOUND ( 'NONE', #31, .T. ) ;
#44 = ORIENTED_EDGE ( 'NONE', *, *, #135, .T. ) ;
#45 = MECHANICAL_DESIGN_GEOMETRIC_PRESENTATION_REPRESENTATION (  '', ( #217 ), #59 ) ;
#46 = LINE ( 'NONE', #144, #149 ) ;
#47 = PRODUCT_DEFINITION_FORMATION_WITH_SPECIFIED_SOURCE ( 'ÈÎºÎ', '', #24, .NOT_KNOWN. ) ;
#48 =( LENGTH_UNIT ( ) NAMED_UNIT ( * ) SI_UNIT ( .MILLI., .METRE. ) );
#49 =( NAMED_UNIT ( * ) PLANE_ANGLE_UNIT ( ) SI_UNIT ( $, .RADIAN. ) );
#50 = PLANE ( 'NONE',  #172 ) ;
#51 = DIRECTION ( 'NONE',  ( -0.9999308645852543800, -0.01175865850279590400, 0.0000000000000000000 ) ) ;
#52 =( NAMED_UNIT ( * ) PLANE_ANGLE_UNIT ( ) SI_UNIT ( $, .RADIAN. ) );
#53 = EDGE_LOOP ( 'NONE', ( #111, #67, #167, #225 ) ) ;
#54 = SURFACE_STYLE_FILL_AREA ( #126 ) ;
#55 = CARTESIAN_POINT ( 'NONE',  ( 0.0000000000000000000, 0.0000000000000000000, 0.0000000000000000000 ) ) ;
#56 = CARTESIAN_POINT ( 'NONE',  ( 0.0000000000000000000, 0.0000000000000000000, 3.200000000000000200 ) ) ;
#57 = DIRECTION ( 'NONE',  ( 1.000000000000000000, 1.213093339843921100E-016, -0.0000000000000000000 ) ) ;
#58 = EDGE_CURVE ( 'NONE', #229, #131, #86, .T. ) ;
#59 =( GEOMETRIC_REPRESENTATION_CONTEXT ( 3 ) GLOBAL_UNCERTAINTY_ASSIGNED_CONTEXT ( ( #112 ) ) GLOBAL_UNIT_ASSIGNED_CONTEXT ( ( #115, #193, #6 ) ) REPRESENTATION_CONTEXT ( 'NONE', 'WORKASPACE' ) );
#60 = AXIS2_PLACEMENT_3D ( 'NONE', #23, #173, #207 ) ;
#61 = ORIENTED_EDGE ( 'NONE', *, *, #169, .T. ) ;
#62 = CARTESIAN_POINT ( 'NONE',  ( 0.0000000000000000000, 0.0000000000000000000, 0.0000000000000000000 ) ) ;
#63 = ORIENTED_EDGE ( 'NONE', *, *, #58, .T. ) ;
#64 = DIRECTION ( 'NONE',  ( -0.0000000000000000000, -0.0000000000000000000, -1.000000000000000000 ) ) ;
#65 = CARTESIAN_POINT ( 'NONE',  ( 14.30000000000000100, 14.46816044243190500, 3.200000000000000200 ) ) ;
#66 = CARTESIAN_POINT ( 'NONE',  ( -14.30000000000000100, 14.46816044243191300, 0.0000000000000000000 ) ) ;
#67 = ORIENTED_EDGE ( 'NONE', *, *, #3, .F. ) ;
#68 = DIRECTION ( 'NONE',  ( 0.01175865850279591400, 0.9999308645852546000, -0.0000000000000000000 ) ) ;
#69 = EDGE_CURVE ( 'NONE', #39, #22, #134, .T. ) ;
#70 = CARTESIAN_POINT ( 'NONE',  ( 14.29999999999999900, 0.1681604424319127200, 3.200000000000000200 ) ) ;
#71 = DIRECTION ( 'NONE',  ( -1.000000000000000000, 2.426186679687842200E-016, 0.0000000000000000000 ) ) ;
#72 = DIRECTION ( 'NONE',  ( 1.000000000000000000, 0.0000000000000000000, -0.0000000000000000000 ) ) ;
#73 = LINE ( 'NONE', #137, #92 ) ;
#74 = ADVANCED_FACE ( 'NONE', ( #38 ), #125, .F. ) ;
#75 = ORIENTED_EDGE ( 'NONE', *, *, #168, .F. ) ;
#76 = LINE ( 'NONE', #235, #94 ) ;
#77 = LINE ( 'NONE', #117, #218 ) ;
#78 = EDGE_CURVE ( 'NONE', #131, #141, #123, .T. ) ;
#79 = ORIENTED_EDGE ( 'NONE', *, *, #169, .F. ) ;
#80 = VECTOR ( 'NONE', #198, 1000.000000000000200 ) ;
#81 = EDGE_CURVE ( 'NONE', #22, #229, #130, .T. ) ;
#82 = CARTESIAN_POINT ( 'NONE',  ( -14.30000000000000100, 14.46816044243191300, 0.0000000000000000000 ) ) ;
#83 = UNCERTAINTY_MEASURE_WITH_UNIT (LENGTH_MEASURE( 1.000000000000000100E-005 ), #48, 'distance_accuracy_value', 'NONE');
#84 = DIRECTION ( 'NONE',  ( 1.213093339843921100E-016, -1.000000000000000000, 0.0000000000000000000 ) ) ;
#85 = ORIENTED_EDGE ( 'NONE', *, *, #135, .F. ) ;
#86 = LINE ( 'NONE', #88, #178 ) ;
#87 = VECTOR ( 'NONE', #161, 1000.000000000000000 ) ;
#88 = CARTESIAN_POINT ( 'NONE',  ( 14.29999999999999900, 0.1681604424319127200, 3.200000000000000200 ) ) ;
#89 =( LENGTH_UNIT ( ) NAMED_UNIT ( * ) SI_UNIT ( .MILLI., .METRE. ) );
#90 = ORIENTED_EDGE ( 'NONE', *, *, #29, .F. ) ;
#91 = CARTESIAN_POINT ( 'NONE',  ( -14.30000000000000100, 14.46816044243191300, 3.200000000000000200 ) ) ;
#92 = VECTOR ( 'NONE', #175, 1000.000000000000000 ) ;
#93 = CARTESIAN_POINT ( 'NONE',  ( -14.29999999999999900, 0.1681604424319128000, 3.200000000000000200 ) ) ;
#94 = VECTOR ( 'NONE', #177, 1000.000000000000200 ) ;
#95 = ORIENTED_EDGE ( 'NONE', *, *, #202, .T. ) ;
#96 = PRODUCT_DEFINITION_CONTEXT ( 'detailed design', #224, 'design' ) ;
#97 = AXIS2_PLACEMENT_3D ( 'NONE', #200, #57, #158 ) ;
#98 = COLOUR_RGB ( '',1.000000000000000000, 1.000000000000000000, 1.000000000000000000 ) ;
#99 = PRODUCT_CONTEXT ( 'NONE', #8, 'mechanical' ) ;
#100 = DIRECTION ( 'NONE',  ( 0.9999308645852543800, 0.01175865850279590200, -0.0000000000000000000 ) ) ;
#101 = CARTESIAN_POINT ( 'NONE',  ( 14.30000000000000100, 14.46816044243190500, 3.200000000000000200 ) ) ;
#102 = APPLICATION_PROTOCOL_DEFINITION ( 'draft international standard', 'automotive_design', 1998, #8 ) ;
#103 = DIRECTION ( 'NONE',  ( 0.0000000000000000000, 0.0000000000000000000, 1.000000000000000000 ) ) ;
#104 = AXIS2_PLACEMENT_3D ( 'NONE', #56, #15, #72 ) ;
#105 = SURFACE_STYLE_USAGE ( .BOTH. , #199 ) ;
#106 = ORIENTED_EDGE ( 'NONE', *, *, #81, .T. ) ;
#107 = DIRECTION ( 'NONE',  ( -0.0000000000000000000, -0.0000000000000000000, -1.000000000000000000 ) ) ;
#108 = COLOUR_RGB ( '',1.000000000000000000, 1.000000000000000000, 1.000000000000000000 ) ;
#109 = AXIS2_PLACEMENT_3D ( 'NONE', #118, #27, #51 ) ;
#110 = ORIENTED_EDGE ( 'NONE', *, *, #3, .T. ) ;
#111 = ORIENTED_EDGE ( 'NONE', *, *, #220, .T. ) ;
#112 = UNCERTAINTY_MEASURE_WITH_UNIT (LENGTH_MEASURE( 1.000000000000000100E-005 ), #115, 'distance_accuracy_value', 'NONE');
#113 = LINE ( 'NONE', #12, #87 ) ;
#114 = MECHANICAL_DESIGN_GEOMETRIC_PRESENTATION_REPRESENTATION (  '', ( #19 ), #192 ) ;
#115 =( LENGTH_UNIT ( ) NAMED_UNIT ( * ) SI_UNIT ( .MILLI., .METRE. ) );
#116 = DIRECTION ( 'NONE',  ( 1.213093339843921100E-016, -1.000000000000000000, 0.0000000000000000000 ) ) ;
#117 = CARTESIAN_POINT ( 'NONE',  ( 14.29999999999999900, 0.1681604424319127200, 0.0000000000000000000 ) ) ;
#118 = CARTESIAN_POINT ( 'NONE',  ( 14.29999999999999900, 0.1681604424319127200, 3.200000000000000200 ) ) ;
#119 = DIRECTION ( 'NONE',  ( -1.213093339843921600E-016, -1.000000000000000000, 0.0000000000000000000 ) ) ;
#120 = VECTOR ( 'NONE', #116, 1000.000000000000000 ) ;
#121 = ORIENTED_EDGE ( 'NONE', *, *, #69, .F. ) ;
#122 = VERTEX_POINT ( 'NONE', #179 ) ;
#123 = LINE ( 'NONE', #232, #186 ) ;
#124 = PRODUCT_RELATED_PRODUCT_CATEGORY ( 'part', '', ( #24 ) ) ;
#125 = PLANE ( 'NONE',  #223 ) ;
#126 = FILL_AREA_STYLE ('',( #181 ) ) ;
#127 = CARTESIAN_POINT ( 'NONE',  ( 14.30000000000000100, 14.46816044243190500, 3.200000000000000200 ) ) ;
#128 = ADVANCED_FACE ( 'NONE', ( #219 ), #145, .T. ) ;
#129 = LINE ( 'NONE', #194, #170 ) ;
#130 = LINE ( 'NONE', #70, #32 ) ;
#131 = VERTEX_POINT ( 'NONE', #212 ) ;
#132 = ORIENTED_EDGE ( 'NONE', *, *, #78, .F. ) ;
#133 = PRODUCT_DEFINITION_SHAPE ( 'NONE', 'NONE',  #210 ) ;
#134 = LINE ( 'NONE', #34, #80 ) ;
#135 = EDGE_CURVE ( 'NONE', #182, #231, #76, .T. ) ;
#136 = PRESENTATION_STYLE_ASSIGNMENT (( #105 ) ) ;
#137 = CARTESIAN_POINT ( 'NONE',  ( 14.30000000000000100, 14.46816044243190500, 3.200000000000000200 ) ) ;
#138 = ORIENTED_EDGE ( 'NONE', *, *, #196, .T. ) ;
#139 = CARTESIAN_POINT ( 'NONE',  ( 0.0000000000000000000, 0.0000000000000000000, 3.200000000000000200 ) ) ;
#140 = FACE_OUTER_BOUND ( 'NONE', #53, .T. ) ;
#141 = VERTEX_POINT ( 'NONE', #16 ) ;
#142 = DIRECTION ( 'NONE',  ( -0.0000000000000000000, -0.0000000000000000000, -1.000000000000000000 ) ) ;
#143 = ADVANCED_BREP_SHAPE_REPRESENTATION ( '435002', ( #40, #60 ), #187 ) ;
#144 = CARTESIAN_POINT ( 'NONE',  ( 14.30000000000000100, 14.46816044243190500, 0.0000000000000000000 ) ) ;
#145 = PLANE ( 'NONE',  #104 ) ;
#146 = APPLICATION_PROTOCOL_DEFINITION ( 'draft international standard', 'automotive_design', 1998, #224 ) ;
#147 = ADVANCED_FACE ( 'NONE', ( #140 ), #165, .F. ) ;
#148 = EDGE_CURVE ( 'NONE', #122, #234, #228, .T. ) ;
#149 = VECTOR ( 'NONE', #71, 1000.000000000000000 ) ;
#150 = SHAPE_DEFINITION_REPRESENTATION ( #133, #143 ) ;
#151 = CARTESIAN_POINT ( 'NONE',  ( 14.29999999999999900, 0.1681604424319127200, 3.200000000000000200 ) ) ;
#152 = VERTEX_POINT ( 'NONE', #201 ) ;
#153 = PLANE ( 'NONE',  #109 ) ;
#154 = DIRECTION ( 'NONE',  ( 1.000000000000000000, -2.426186679687842200E-016, 0.0000000000000000000 ) ) ;
#155 =( NAMED_UNIT ( * ) SI_UNIT ( $, .STERADIAN. ) SOLID_ANGLE_UNIT ( ) );
#156 = FILL_AREA_STYLE_COLOUR ( '', #108 ) ;
#157 = PRESENTATION_STYLE_ASSIGNMENT (( #209 ) ) ;
#158 = DIRECTION ( 'NONE',  ( -1.213093339843921100E-016, 1.000000000000000000, 0.0000000000000000000 ) ) ;
#159 = DIRECTION ( 'NONE',  ( 0.9999308645852543800, 0.01175865850279590200, -0.0000000000000000000 ) ) ;
#160 = ORIENTED_EDGE ( 'NONE', *, *, #148, .F. ) ;
#161 = DIRECTION ( 'NONE',  ( -0.0000000000000000000, -0.0000000000000000000, -1.000000000000000000 ) ) ;
#162 = ORIENTED_EDGE ( 'NONE', *, *, #220, .F. ) ;
#163 = CARTESIAN_POINT ( 'NONE',  ( -14.29999999999999900, 0.1681604424319128000, 3.200000000000000200 ) ) ;
#164 = ADVANCED_FACE ( 'NONE', ( #43 ), #36, .F. ) ;
#165 = PLANE ( 'NONE',  #97 ) ;
#166 = ADVANCED_FACE ( 'NONE', ( #176 ), #9, .F. ) ;
#167 = ORIENTED_EDGE ( 'NONE', *, *, #196, .F. ) ;
#168 = EDGE_CURVE ( 'NONE', #231, #131, #77, .T. ) ;
#169 = EDGE_CURVE ( 'NONE', #22, #231, #214, .T. ) ;
#170 = VECTOR ( 'NONE', #64, 1000.000000000000000 ) ;
#171 = ORIENTED_EDGE ( 'NONE', *, *, #58, .F. ) ;
#172 = AXIS2_PLACEMENT_3D ( 'NONE', #65, #26, #154 ) ;
#173 = DIRECTION ( 'NONE',  ( 0.0000000000000000000, 0.0000000000000000000, 1.000000000000000000 ) ) ;
#174 = DIRECTION ( 'NONE',  ( -0.0000000000000000000, -0.0000000000000000000, -1.000000000000000000 ) ) ;
#175 = DIRECTION ( 'NONE',  ( 1.213093339843921600E-016, 1.000000000000000000, -0.0000000000000000000 ) ) ;
#176 = FACE_OUTER_BOUND ( 'NONE', #205, .T. ) ;
#177 = DIRECTION ( 'NONE',  ( 0.9999308645852543800, -0.01175865850279590900, 0.0000000000000000000 ) ) ;
#178 = VECTOR ( 'NONE', #142, 1000.000000000000000 ) ;
#179 = CARTESIAN_POINT ( 'NONE',  ( -14.30000000000000100, 14.46816044243191300, 3.200000000000000200 ) ) ;
#180 = PRESENTATION_LAYER_ASSIGNMENT (  '', '', ( #19 ) ) ;
#181 = FILL_AREA_STYLE_COLOUR ( '', #98 ) ;
#182 = VERTEX_POINT ( 'NONE', #208 ) ;
#183 = VECTOR ( 'NONE', #174, 1000.000000000000000 ) ;
#184 = ORIENTED_EDGE ( 'NONE', *, *, #78, .T. ) ;
#185 = ADVANCED_FACE ( 'NONE', ( #28 ), #50, .F. ) ;
#186 = VECTOR ( 'NONE', #33, 1000.000000000000000 ) ;
#187 =( GEOMETRIC_REPRESENTATION_CONTEXT ( 3 ) GLOBAL_UNCERTAINTY_ASSIGNED_CONTEXT ( ( #83 ) ) GLOBAL_UNIT_ASSIGNED_CONTEXT ( ( #48, #49, #195 ) ) REPRESENTATION_CONTEXT ( 'NONE', 'WORKASPACE' ) );
#188 = EDGE_LOOP ( 'NONE', ( #191, #160, #90, #95 ) ) ;
#189 = VECTOR ( 'NONE', #14, 1000.000000000000000 ) ;
#190 = ORIENTED_EDGE ( 'NONE', *, *, #81, .F. ) ;
#191 = ORIENTED_EDGE ( 'NONE', *, *, #17, .T. ) ;
#192 =( GEOMETRIC_REPRESENTATION_CONTEXT ( 3 ) GLOBAL_UNCERTAINTY_ASSIGNED_CONTEXT ( ( #233 ) ) GLOBAL_UNIT_ASSIGNED_CONTEXT ( ( #89, #52, #155 ) ) REPRESENTATION_CONTEXT ( 'NONE', 'WORKASPACE' ) );
#193 =( NAMED_UNIT ( * ) PLANE_ANGLE_UNIT ( ) SI_UNIT ( $, .RADIAN. ) );
#194 = CARTESIAN_POINT ( 'NONE',  ( 14.30000000000000100, 14.46816044243190500, 3.200000000000000200 ) ) ;
#195 =( NAMED_UNIT ( * ) SI_UNIT ( $, .STERADIAN. ) SOLID_ANGLE_UNIT ( ) );
#196 = EDGE_CURVE ( 'NONE', #122, #39, #20, .T. ) ;
#197 = DIRECTION ( 'NONE',  ( 1.000000000000000000, 0.0000000000000000000, -0.0000000000000000000 ) ) ;
#198 = DIRECTION ( 'NONE',  ( 0.9999308645852543800, -0.01175865850279590900, 0.0000000000000000000 ) ) ;
#199 = SURFACE_SIDE_STYLE ('',( #54 ) ) ;
#200 = CARTESIAN_POINT ( 'NONE',  ( -14.30000000000000100, 14.46816044243191300, 3.200000000000000200 ) ) ;
#201 = CARTESIAN_POINT ( 'NONE',  ( 14.30000000000000100, 14.46816044243190500, 3.200000000000000200 ) ) ;
#202 = EDGE_CURVE ( 'NONE', #152, #141, #129, .T. ) ;
#203 = ORIENTED_EDGE ( 'NONE', *, *, #211, .F. ) ;
#204 = AXIS2_PLACEMENT_3D ( 'NONE', #93, #68, #11 ) ;
#205 = EDGE_LOOP ( 'NONE', ( #184, #206, #203, #63 ) ) ;
#206 = ORIENTED_EDGE ( 'NONE', *, *, #202, .F. ) ;
#207 = DIRECTION ( 'NONE',  ( 1.000000000000000000, 0.0000000000000000000, 0.0000000000000000000 ) ) ;
#208 = CARTESIAN_POINT ( 'NONE',  ( -14.29999999999999900, 0.1681604424319128000, 0.0000000000000000000 ) ) ;
#209 = SURFACE_STYLE_USAGE ( .BOTH. , #7 ) ;
#210 = PRODUCT_DEFINITION ( 'Î´Öª', '', #47, #96 ) ;
#211 = EDGE_CURVE ( 'NONE', #229, #152, #73, .T. ) ;
#212 = CARTESIAN_POINT ( 'NONE',  ( 14.29999999999999900, 0.1681604424319127200, 0.0000000000000000000 ) ) ;
#213 = ADVANCED_FACE ( 'NONE', ( #227 ), #153, .F. ) ;
#214 = LINE ( 'NONE', #139, #183 ) ;
#215 = EDGE_LOOP ( 'NONE', ( #30, #171, #190, #61 ) ) ;
#216 = VECTOR ( 'NONE', #107, 1000.000000000000000 ) ;
#217 = STYLED_ITEM ( 'NONE', ( #157 ), #143 ) ;
#218 = VECTOR ( 'NONE', #100, 1000.000000000000200 ) ;
#219 = FACE_OUTER_BOUND ( 'NONE', #41, .T. ) ;
#220 = EDGE_CURVE ( 'NONE', #234, #182, #42, .T. ) ;
#221 = CLOSED_SHELL ( 'NONE', ( #213, #166, #185, #147, #164, #128, #74 ) ) ;
#222 = FILL_AREA_STYLE ('',( #156 ) ) ;
#223 = AXIS2_PLACEMENT_3D ( 'NONE', #55, #103, #197 ) ;
#224 = APPLICATION_CONTEXT ( 'automotive_design' ) ;
#225 = ORIENTED_EDGE ( 'NONE', *, *, #148, .T. ) ;
#226 = DIRECTION ( 'NONE',  ( -1.000000000000000000, 1.213093339843921600E-016, 0.0000000000000000000 ) ) ;
#227 = FACE_OUTER_BOUND ( 'NONE', #215, .T. ) ;
#228 = LINE ( 'NONE', #91, #216 ) ;
#229 = VERTEX_POINT ( 'NONE', #151 ) ;
#230 = AXIS2_PLACEMENT_3D ( 'NONE', #101, #226, #119 ) ;
#231 = VERTEX_POINT ( 'NONE', #62 ) ;
#232 = CARTESIAN_POINT ( 'NONE',  ( 14.30000000000000100, 14.46816044243190500, 0.0000000000000000000 ) ) ;
#233 = UNCERTAINTY_MEASURE_WITH_UNIT (LENGTH_MEASURE( 1.000000000000000100E-005 ), #89, 'distance_accuracy_value', 'NONE');
#234 = VERTEX_POINT ( 'NONE', #82 ) ;
#235 = CARTESIAN_POINT ( 'NONE',  ( -14.29999999999999900, 0.1681604424319128000, 0.0000000000000000000 ) ) ;
ENDSEC;
END-ISO-10303-21;
