ISO-10303-21;
HEADER;
FILE_DESCRIPTION (( 'STEP AP214' ),
    '1' );
FILE_NAME ('400002.STEP',
    '2019-08-21T02:50:18',
    ( '' ),
    ( '' ),
    'SwSTEP 2.0',
    'SolidWorks 2016',
    '' );
FILE_SCHEMA (( 'AUTOMOTIVE_DESIGN' ));
ENDSEC;

DATA;
#1 = DIRECTION ( 'NONE',  ( 0.0000000000000000000, 0.0000000000000000000, 1.000000000000000000 ) ) ;
#2 = ORIENTED_EDGE ( 'NONE', *, *, #167, .F. ) ;
#3 = CYLINDRICAL_SURFACE ( 'NONE', #69, 12.70000000000000300 ) ;
#4 = PRODUCT_DEFINITION_FORMATION_WITH_SPECIFIED_SOURCE ( 'ÈÎºÎ', '', #38, .NOT_KNOWN. ) ;
#5 = DIRECTION ( 'NONE',  ( 1.000000000000000000, 0.0000000000000000000, 0.0000000000000000000 ) ) ;
#6 = ADVANCED_FACE ( 'NONE', ( #29 ), #84, .F. ) ;
#7 = AXIS2_PLACEMENT_3D ( 'NONE', #122, #16, #124 ) ;
#8 = LINE ( 'NONE', #147, #109 ) ;
#9 = COLOUR_RGB ( '',1.000000000000000000, 1.000000000000000000, 1.000000000000000000 ) ;
#10 = ADVANCED_FACE ( 'NONE', ( #162 ), #13, .T. ) ;
#11 = PRODUCT_DEFINITION_SHAPE ( 'NONE', 'NONE',  #134 ) ;
#12 = MECHANICAL_DESIGN_GEOMETRIC_PRESENTATION_REPRESENTATION (  '', ( #125 ), #73 ) ;
#13 = SPHERICAL_SURFACE ( 'NONE', #26, 68.84999999999999400 ) ;
#14 = CARTESIAN_POINT ( 'NONE',  ( 51.10460643083814600, 65.23355492641223900, 0.0000000000000000000 ) ) ;
#15 = SPHERICAL_SURFACE ( 'NONE', #157, 68.84999999999999400 ) ;
#16 = DIRECTION ( 'NONE',  ( -1.000000000000000000, -0.0000000000000000000, -0.0000000000000000000 ) ) ;
#17 = EDGE_CURVE ( 'NONE', #169, #71, #19, .T. ) ;
#18 = DIRECTION ( 'NONE',  ( 0.0000000000000000000, -1.000000000000000000, -1.224646799147353200E-016 ) ) ;
#19 = CIRCLE ( 'NONE', #43, 12.70000000000000300 ) ;
#20 = APPLICATION_PROTOCOL_DEFINITION ( 'draft international standard', 'automotive_design', 1998, #115 ) ;
#21 = DIRECTION ( 'NONE',  ( 0.0000000000000000000, 0.0000000000000000000, 1.000000000000000000 ) ) ;
#22 = CIRCLE ( 'NONE', #35, 12.70000000000000300 ) ;
#23 = EDGE_CURVE ( 'NONE', #185, #90, #83, .T. ) ;
#24 = ORIENTED_EDGE ( 'NONE', *, *, #95, .F. ) ;
#25 = ORIENTED_EDGE ( 'NONE', *, *, #186, .T. ) ;
#26 = AXIS2_PLACEMENT_3D ( 'NONE', #99, #21, #127 ) ;
#27 = ORIENTED_EDGE ( 'NONE', *, *, #17, .F. ) ;
#28 =( NAMED_UNIT ( * ) PLANE_ANGLE_UNIT ( ) SI_UNIT ( $, .RADIAN. ) );
#29 = FACE_OUTER_BOUND ( 'NONE', #139, .T. ) ;
#30 = AXIS2_PLACEMENT_3D ( 'NONE', #40, #51, #39 ) ;
#31 = EDGE_CURVE ( 'NONE', #185, #71, #153, .T. ) ;
#32 = EDGE_LOOP ( 'NONE', ( #113, #145, #36, #97 ) ) ;
#33 = ORIENTED_EDGE ( 'NONE', *, *, #23, .T. ) ;
#34 = SURFACE_STYLE_FILL_AREA ( #149 ) ;
#35 = AXIS2_PLACEMENT_3D ( 'NONE', #151, #120, #136 ) ;
#36 = ORIENTED_EDGE ( 'NONE', *, *, #23, .F. ) ;
#37 = CARTESIAN_POINT ( 'NONE',  ( 118.7731552552366000, 77.93355492641224200, 1.555301434917139600E-015 ) ) ;
#38 = PRODUCT ( '400002', '400002', '', ( #168 ) ) ;
#39 = DIRECTION ( 'NONE',  ( 0.0000000000000000000, 0.0000000000000000000, 1.000000000000000000 ) ) ;
#40 = CARTESIAN_POINT ( 'NONE',  ( 118.7731552552366200, 65.23355492641219700, 0.0000000000000000000 ) ) ;
#41 = CARTESIAN_POINT ( 'NONE',  ( 118.7731552552366000, 52.53355492641218700, 0.0000000000000000000 ) ) ;
#42 = CIRCLE ( 'NONE', #87, 12.70000000000000300 ) ;
#43 = AXIS2_PLACEMENT_3D ( 'NONE', #117, #128, #158 ) ;
#44 = CARTESIAN_POINT ( 'NONE',  ( 51.10460643083814600, 65.23355492641223900, 0.0000000000000000000 ) ) ;
#45 = DIRECTION ( 'NONE',  ( 0.0000000000000000000, -1.224646799147353200E-016, 1.000000000000000000 ) ) ;
#46 =( NAMED_UNIT ( * ) PLANE_ANGLE_UNIT ( ) SI_UNIT ( $, .RADIAN. ) );
#47 = DIRECTION ( 'NONE',  ( 0.0000000000000000000, 0.0000000000000000000, -1.000000000000000000 ) ) ;
#48 =( GEOMETRIC_REPRESENTATION_CONTEXT ( 3 ) GLOBAL_UNCERTAINTY_ASSIGNED_CONTEXT ( ( #175 ) ) GLOBAL_UNIT_ASSIGNED_CONTEXT ( ( #110, #28, #80 ) ) REPRESENTATION_CONTEXT ( 'NONE', 'WORKASPACE' ) );
#49 = FACE_OUTER_BOUND ( 'NONE', #32, .T. ) ;
#50 = AXIS2_PLACEMENT_3D ( 'NONE', #93, #137, #108 ) ;
#51 = DIRECTION ( 'NONE',  ( -1.000000000000000000, -0.0000000000000000000, -0.0000000000000000000 ) ) ;
#52 = FACE_OUTER_BOUND ( 'NONE', #62, .T. ) ;
#53 = FILL_AREA_STYLE_COLOUR ( '', #9 ) ;
#54 = DIRECTION ( 'NONE',  ( 0.0000000000000000000, -1.000000000000000000, 0.0000000000000000000 ) ) ;
#55 = SURFACE_STYLE_USAGE ( .BOTH. , #126 ) ;
#56 =( GEOMETRIC_REPRESENTATION_CONTEXT ( 3 ) GLOBAL_UNCERTAINTY_ASSIGNED_CONTEXT ( ( #116 ) ) GLOBAL_UNIT_ASSIGNED_CONTEXT ( ( #154, #96, #98 ) ) REPRESENTATION_CONTEXT ( 'NONE', 'WORKASPACE' ) );
#57 = CLOSED_SHELL ( 'NONE', ( #144, #10, #88, #129, #6 ) ) ;
#58 = APPLICATION_CONTEXT ( 'automotive_design' ) ;
#59 = VERTEX_POINT ( 'NONE', #37 ) ;
#60 = DIRECTION ( 'NONE',  ( -1.000000000000000000, -0.0000000000000000000, -0.0000000000000000000 ) ) ;
#61 = MECHANICAL_DESIGN_GEOMETRIC_PRESENTATION_REPRESENTATION (  '', ( #178 ), #48 ) ;
#62 = EDGE_LOOP ( 'NONE', ( #177, #33, #119, #159, #172 ) ) ;
#63 = SURFACE_STYLE_FILL_AREA ( #138 ) ;
#64 = ORIENTED_EDGE ( 'NONE', *, *, #67, .F. ) ;
#65 = AXIS2_PLACEMENT_3D ( 'NONE', #155, #5, #47 ) ;
#66 = COLOUR_RGB ( '',1.000000000000000000, 1.000000000000000000, 1.000000000000000000 ) ;
#67 = EDGE_CURVE ( 'NONE', #148, #59, #85, .T. ) ;
#68 = DIRECTION ( 'NONE',  ( -1.000000000000000000, -0.0000000000000000000, -0.0000000000000000000 ) ) ;
#69 = AXIS2_PLACEMENT_3D ( 'NONE', #94, #68, #166 ) ;
#70 = DIRECTION ( 'NONE',  ( 1.000000000000000000, 0.0000000000000000000, 0.0000000000000000000 ) ) ;
#71 = VERTEX_POINT ( 'NONE', #163 ) ;
#72 = CARTESIAN_POINT ( 'NONE',  ( 110.1653732284884500, 65.23355492641219700, -12.70000000000000300 ) ) ;
#73 =( GEOMETRIC_REPRESENTATION_CONTEXT ( 3 ) GLOBAL_UNCERTAINTY_ASSIGNED_CONTEXT ( ( #79 ) ) GLOBAL_UNIT_ASSIGNED_CONTEXT ( ( #114, #46, #111 ) ) REPRESENTATION_CONTEXT ( 'NONE', 'WORKASPACE' ) );
#74 = SHAPE_DEFINITION_REPRESENTATION ( #11, #75 ) ;
#75 = ADVANCED_BREP_SHAPE_REPRESENTATION ( '400002', ( #146, #176 ), #56 ) ;
#76 = AXIS2_PLACEMENT_3D ( 'NONE', #14, #182, #180 ) ;
#77 = CARTESIAN_POINT ( 'NONE',  ( 118.7731552552366200, 65.23355492641219700, 0.0000000000000000000 ) ) ;
#78 = CARTESIAN_POINT ( 'NONE',  ( 51.10460643083814600, 65.23355492641223900, 0.0000000000000000000 ) ) ;
#79 = UNCERTAINTY_MEASURE_WITH_UNIT (LENGTH_MEASURE( 1.000000000000000100E-005 ), #114, 'distance_accuracy_value', 'NONE');
#80 =( NAMED_UNIT ( * ) SI_UNIT ( $, .STERADIAN. ) SOLID_ANGLE_UNIT ( ) );
#81 = CIRCLE ( 'NONE', #102, 68.84999999999999400 ) ;
#82 = DIRECTION ( 'NONE',  ( 0.0000000000000000000, 0.0000000000000000000, 1.000000000000000000 ) ) ;
#83 = CIRCLE ( 'NONE', #50, 12.70000000000000300 ) ;
#84 = PLANE ( 'NONE',  #65 ) ;
#85 = CIRCLE ( 'NONE', #161, 12.70000000000000300 ) ;
#86 = FACE_OUTER_BOUND ( 'NONE', #174, .T. ) ;
#87 = AXIS2_PLACEMENT_3D ( 'NONE', #150, #107, #82 ) ;
#88 = ADVANCED_FACE ( 'NONE', ( #49 ), #15, .T. ) ;
#89 = ORIENTED_EDGE ( 'NONE', *, *, #31, .T. ) ;
#90 = VERTEX_POINT ( 'NONE', #41 ) ;
#91 = CARTESIAN_POINT ( 'NONE',  ( 118.7731552552366200, 65.23355492641219700, -12.70000000000000300 ) ) ;
#92 = CARTESIAN_POINT ( 'NONE',  ( 115.7736064308381300, 65.23355492641219700, 12.70000000000000300 ) ) ;
#93 = CARTESIAN_POINT ( 'NONE',  ( 118.7731552552366200, 65.23355492641219700, 0.0000000000000000000 ) ) ;
#94 = CARTESIAN_POINT ( 'NONE',  ( 110.1653732284884500, 65.23355492641219700, 0.0000000000000000000 ) ) ;
#95 = EDGE_CURVE ( 'NONE', #90, #148, #156, .T. ) ;
#96 =( NAMED_UNIT ( * ) PLANE_ANGLE_UNIT ( ) SI_UNIT ( $, .RADIAN. ) );
#97 = ORIENTED_EDGE ( 'NONE', *, *, #152, .F. ) ;
#98 =( NAMED_UNIT ( * ) SI_UNIT ( $, .STERADIAN. ) SOLID_ANGLE_UNIT ( ) );
#99 = CARTESIAN_POINT ( 'NONE',  ( 51.10460643083814600, 65.23355492641223900, 0.0000000000000000000 ) ) ;
#100 = ORIENTED_EDGE ( 'NONE', *, *, #17, .T. ) ;
#101 = PRODUCT_RELATED_PRODUCT_CATEGORY ( 'part', '', ( #38 ) ) ;
#102 = AXIS2_PLACEMENT_3D ( 'NONE', #44, #45, #18 ) ;
#103 = DIRECTION ( 'NONE',  ( 0.0000000000000000000, 0.0000000000000000000, 1.000000000000000000 ) ) ;
#104 = ORIENTED_EDGE ( 'NONE', *, *, #143, .F. ) ;
#105 = CYLINDRICAL_SURFACE ( 'NONE', #7, 12.70000000000000300 ) ;
#106 = CARTESIAN_POINT ( 'NONE',  ( 119.9546064308381400, 65.23355492641223900, 0.0000000000000000000 ) ) ;
#107 = DIRECTION ( 'NONE',  ( -1.000000000000000000, -0.0000000000000000000, -0.0000000000000000000 ) ) ;
#108 = DIRECTION ( 'NONE',  ( 0.0000000000000000000, 0.0000000000000000000, 1.000000000000000000 ) ) ;
#109 = VECTOR ( 'NONE', #164, 1000.000000000000000 ) ;
#110 =( LENGTH_UNIT ( ) NAMED_UNIT ( * ) SI_UNIT ( .MILLI., .METRE. ) );
#111 =( NAMED_UNIT ( * ) SI_UNIT ( $, .STERADIAN. ) SOLID_ANGLE_UNIT ( ) );
#112 = FILL_AREA_STYLE_COLOUR ( '', #66 ) ;
#113 = ORIENTED_EDGE ( 'NONE', *, *, #186, .F. ) ;
#114 =( LENGTH_UNIT ( ) NAMED_UNIT ( * ) SI_UNIT ( .MILLI., .METRE. ) );
#115 = APPLICATION_CONTEXT ( 'automotive_design' ) ;
#116 = UNCERTAINTY_MEASURE_WITH_UNIT (LENGTH_MEASURE( 1.000000000000000100E-005 ), #154, 'distance_accuracy_value', 'NONE');
#117 = CARTESIAN_POINT ( 'NONE',  ( 115.7736064308381300, 65.23355492641219700, 0.0000000000000000000 ) ) ;
#118 = EDGE_CURVE ( 'NONE', #71, #169, #22, .T. ) ;
#119 = ORIENTED_EDGE ( 'NONE', *, *, #95, .T. ) ;
#120 = DIRECTION ( 'NONE',  ( -1.000000000000000000, -0.0000000000000000000, -0.0000000000000000000 ) ) ;
#121 = CARTESIAN_POINT ( 'NONE',  ( 118.7731552552366200, 65.23355492641219700, 12.70000000000000300 ) ) ;
#122 = CARTESIAN_POINT ( 'NONE',  ( 110.1653732284884500, 65.23355492641219700, 0.0000000000000000000 ) ) ;
#123 = DIRECTION ( 'NONE',  ( -1.000000000000000000, -0.0000000000000000000, -0.0000000000000000000 ) ) ;
#124 = DIRECTION ( 'NONE',  ( 0.0000000000000000000, 0.0000000000000000000, 1.000000000000000000 ) ) ;
#125 = STYLED_ITEM ( 'NONE', ( #170 ), #75 ) ;
#126 = SURFACE_SIDE_STYLE ('',( #63 ) ) ;
#127 = DIRECTION ( 'NONE',  ( 0.0000000000000000000, -1.000000000000000000, 0.0000000000000000000 ) ) ;
#128 = DIRECTION ( 'NONE',  ( -1.000000000000000000, -0.0000000000000000000, -0.0000000000000000000 ) ) ;
#129 = ADVANCED_FACE ( 'NONE', ( #52 ), #105, .T. ) ;
#130 = ORIENTED_EDGE ( 'NONE', *, *, #67, .T. ) ;
#131 = PRESENTATION_LAYER_ASSIGNMENT (  '', '', ( #125 ) ) ;
#132 = EDGE_LOOP ( 'NONE', ( #104, #25, #64, #24 ) ) ;
#133 = DIRECTION ( 'NONE',  ( 0.0000000000000000000, 0.0000000000000000000, 1.000000000000000000 ) ) ;
#134 = PRODUCT_DEFINITION ( 'Î´Öª', '', #4, #165 ) ;
#135 = VERTEX_POINT ( 'NONE', #106 ) ;
#136 = DIRECTION ( 'NONE',  ( 0.0000000000000000000, 0.0000000000000000000, 1.000000000000000000 ) ) ;
#137 = DIRECTION ( 'NONE',  ( -1.000000000000000000, -0.0000000000000000000, -0.0000000000000000000 ) ) ;
#138 = FILL_AREA_STYLE ('',( #112 ) ) ;
#139 = EDGE_LOOP ( 'NONE', ( #100, #181 ) ) ;
#140 = CIRCLE ( 'NONE', #76, 68.84999999999999400 ) ;
#141 = CARTESIAN_POINT ( 'NONE',  ( 0.0000000000000000000, 0.0000000000000000000, 0.0000000000000000000 ) ) ;
#142 = PRESENTATION_STYLE_ASSIGNMENT (( #184 ) ) ;
#143 = EDGE_CURVE ( 'NONE', #135, #90, #140, .T. ) ;
#144 = ADVANCED_FACE ( 'NONE', ( #86 ), #3, .T. ) ;
#145 = ORIENTED_EDGE ( 'NONE', *, *, #143, .T. ) ;
#146 = MANIFOLD_SOLID_BREP ( 'Ðý×ª1', #57 ) ;
#147 = CARTESIAN_POINT ( 'NONE',  ( 110.1653732284884500, 65.23355492641219700, 12.70000000000000300 ) ) ;
#148 = VERTEX_POINT ( 'NONE', #121 ) ;
#149 = FILL_AREA_STYLE ('',( #53 ) ) ;
#150 = CARTESIAN_POINT ( 'NONE',  ( 118.7731552552366200, 65.23355492641219700, 0.0000000000000000000 ) ) ;
#151 = CARTESIAN_POINT ( 'NONE',  ( 115.7736064308381300, 65.23355492641219700, 0.0000000000000000000 ) ) ;
#152 = EDGE_CURVE ( 'NONE', #59, #185, #42, .T. ) ;
#153 = LINE ( 'NONE', #72, #160 ) ;
#154 =( LENGTH_UNIT ( ) NAMED_UNIT ( * ) SI_UNIT ( .MILLI., .METRE. ) );
#155 = CARTESIAN_POINT ( 'NONE',  ( 115.7736064308381300, 65.23355492641219700, 0.0000000000000000000 ) ) ;
#156 = CIRCLE ( 'NONE', #30, 12.70000000000000300 ) ;
#157 = AXIS2_PLACEMENT_3D ( 'NONE', #78, #133, #54 ) ;
#158 = DIRECTION ( 'NONE',  ( 0.0000000000000000000, 0.0000000000000000000, 1.000000000000000000 ) ) ;
#159 = ORIENTED_EDGE ( 'NONE', *, *, #167, .T. ) ;
#160 = VECTOR ( 'NONE', #60, 1000.000000000000000 ) ;
#161 = AXIS2_PLACEMENT_3D ( 'NONE', #77, #123, #103 ) ;
#162 = FACE_OUTER_BOUND ( 'NONE', #132, .T. ) ;
#163 = CARTESIAN_POINT ( 'NONE',  ( 115.7736064308381300, 65.23355492641219700, -12.70000000000000300 ) ) ;
#164 = DIRECTION ( 'NONE',  ( -1.000000000000000000, -0.0000000000000000000, -0.0000000000000000000 ) ) ;
#165 = PRODUCT_DEFINITION_CONTEXT ( 'detailed design', #115, 'design' ) ;
#166 = DIRECTION ( 'NONE',  ( 0.0000000000000000000, 0.0000000000000000000, 1.000000000000000000 ) ) ;
#167 = EDGE_CURVE ( 'NONE', #148, #169, #8, .T. ) ;
#168 = PRODUCT_CONTEXT ( 'NONE', #58, 'mechanical' ) ;
#169 = VERTEX_POINT ( 'NONE', #92 ) ;
#170 = PRESENTATION_STYLE_ASSIGNMENT (( #55 ) ) ;
#171 = APPLICATION_PROTOCOL_DEFINITION ( 'draft international standard', 'automotive_design', 1998, #58 ) ;
#172 = ORIENTED_EDGE ( 'NONE', *, *, #118, .F. ) ;
#173 = PRESENTATION_LAYER_ASSIGNMENT (  '', '', ( #178 ) ) ;
#174 = EDGE_LOOP ( 'NONE', ( #179, #89, #27, #2, #130 ) ) ;
#175 = UNCERTAINTY_MEASURE_WITH_UNIT (LENGTH_MEASURE( 1.000000000000000100E-005 ), #110, 'distance_accuracy_value', 'NONE');
#176 = AXIS2_PLACEMENT_3D ( 'NONE', #141, #1, #70 ) ;
#177 = ORIENTED_EDGE ( 'NONE', *, *, #31, .F. ) ;
#178 = STYLED_ITEM ( 'NONE', ( #142 ), #146 ) ;
#179 = ORIENTED_EDGE ( 'NONE', *, *, #152, .T. ) ;
#180 = DIRECTION ( 'NONE',  ( -1.000000000000000000, 0.0000000000000000000, 0.0000000000000000000 ) ) ;
#181 = ORIENTED_EDGE ( 'NONE', *, *, #118, .T. ) ;
#182 = DIRECTION ( 'NONE',  ( 0.0000000000000000000, 0.0000000000000000000, -1.000000000000000000 ) ) ;
#183 = SURFACE_SIDE_STYLE ('',( #34 ) ) ;
#184 = SURFACE_STYLE_USAGE ( .BOTH. , #183 ) ;
#185 = VERTEX_POINT ( 'NONE', #91 ) ;
#186 = EDGE_CURVE ( 'NONE', #135, #59, #81, .T. ) ;
ENDSEC;
END-ISO-10303-21;
