ISO-10303-21;
HEADER;
FILE_DESCRIPTION (( 'STEP AP203' ),
    '1' );
FILE_NAME ('670034.STEP',
    '2025-05-23T04:03:53',
    ( 'Windows User' ),
    ( 'P R C' ),
    'SwSTEP 2.0',
    'SolidWorks 2020',
    '' );
FILE_SCHEMA (( 'CONFIG_CONTROL_DESIGN' ));
ENDSEC;

DATA;
#1 = ADVANCED_FACE ( 'NONE', ( #276, #310 ), #274, .T. ) ;
#2 = CARTESIAN_POINT ( 'NONE',  ( 0.000000000000000000, 0.4999999999999935052, 0.000000000000000000 ) ) ;
#3 = CARTESIAN_POINT ( 'NONE',  ( 0.000000000000000000, 40.00000000000000000, 0.000000000000000000 ) ) ;
#4 = AXIS2_PLACEMENT_3D ( 'NONE', #2, #186, #326 ) ;
#5 = FACE_OUTER_BOUND ( 'NONE', #52, .T. ) ;
#6 = EDGE_LOOP ( 'NONE', ( #72 ) ) ;
#7 = VERTEX_POINT ( 'NONE', #159 ) ;
#8 = EDGE_CURVE ( 'NONE', #61, #61, #28, .T. ) ;
#9 = DIRECTION ( 'NONE',  ( 0.000000000000000000, 1.000000000000000000, 0.000000000000000000 ) ) ;
#10 = CONICAL_SURFACE ( 'NONE', #180, 19.99999999999998934, 0.7853981633974482790 ) ;
#11 = EDGE_LOOP ( 'NONE', ( #37 ) ) ;
#12 = UNCERTAINTY_MEASURE_WITH_UNIT (LENGTH_MEASURE( 1.000000000000000082E-05 ), #135, 'distance_accuracy_value', 'NONE');
#13 = EDGE_CURVE ( 'NONE', #95, #95, #204, .T. ) ;
#14 = SECURITY_CLASSIFICATION_LEVEL ( 'unclassified' ) ;
#15 = ORIENTED_EDGE ( 'NONE', *, *, #233, .T. ) ;
#16 = APPROVAL_ROLE ( '' ) ;
#17 = ORIENTED_EDGE ( 'NONE', *, *, #355, .F. ) ;
#18 = PRODUCT_DEFINITION_FORMATION_WITH_SPECIFIED_SOURCE ( 'ÈÎºÎ', '', #293, .NOT_KNOWN. ) ;
#19 = PERSON_AND_ORGANIZATION_ROLE ( 'creator' ) ;
#20 = EDGE_LOOP ( 'NONE', ( #17 ) ) ;
#21 = EDGE_LOOP ( 'NONE', ( #103 ) ) ;
#22 = DIRECTION ( 'NONE',  ( -0.000000000000000000, 1.000000000000000000, -0.000000000000000000 ) ) ;
#23 = AXIS2_PLACEMENT_3D ( 'NONE', #266, #153, #31 ) ;
#24 = FACE_OUTER_BOUND ( 'NONE', #220, .T. ) ;
#25 = ADVANCED_FACE ( 'NONE', ( #80, #300 ), #42, .F. ) ;
#26 = DIRECTION ( 'NONE',  ( 0.000000000000000000, 0.000000000000000000, -1.000000000000000000 ) ) ;
#27 = CARTESIAN_POINT ( 'NONE',  ( 0.000000000000000000, 40.00000000000000000, 0.000000000000000000 ) ) ;
#28 = CIRCLE ( 'NONE', #66, 20.49999999999999645 ) ;
#29 = DIRECTION ( 'NONE',  ( 0.000000000000000000, 1.000000000000000000, 0.000000000000000000 ) ) ;
#30 = EDGE_CURVE ( 'NONE', #124, #124, #34, .T. ) ;
#31 = DIRECTION ( 'NONE',  ( 0.000000000000000000, 0.000000000000000000, -1.000000000000000000 ) ) ;
#32 = ORIENTED_EDGE ( 'NONE', *, *, #8, .F. ) ;
#33 = CARTESIAN_POINT ( 'NONE',  ( 0.000000000000000000, 0.000000000000000000, 20.00000000000000355 ) ) ;
#34 = CIRCLE ( 'NONE', #263, 18.24999999999999645 ) ;
#35 = CYLINDRICAL_SURFACE ( 'NONE', #23, 18.24999999999999645 ) ;
#36 = AXIS2_PLACEMENT_3D ( 'NONE', #67, #237, #38 ) ;
#37 = ORIENTED_EDGE ( 'NONE', *, *, #291, .F. ) ;
#38 = DIRECTION ( 'NONE',  ( 0.000000000000000000, 0.000000000000000000, 1.000000000000000000 ) ) ;
#39 = EDGE_LOOP ( 'NONE', ( #146 ) ) ;
#40 = PLANE ( 'NONE',  #41 ) ;
#41 = AXIS2_PLACEMENT_3D ( 'NONE', #129, #9, #321 ) ;
#42 = PLANE ( 'NONE',  #239 ) ;
#43 = ADVANCED_FACE ( 'NONE', ( #194, #303 ), #10, .T. ) ;
#44 = PERSON_AND_ORGANIZATION_ROLE ( 'creator' ) ;
#45 = DIRECTION ( 'NONE',  ( -0.000000000000000000, -1.000000000000000000, -0.000000000000000000 ) ) ;
#46 = ORIENTED_EDGE ( 'NONE', *, *, #242, .F. ) ;
#47 = CALENDAR_DATE ( 2025, 23, 5 ) ;
#48 = DIRECTION ( 'NONE',  ( -0.000000000000000000, 1.000000000000000000, -0.000000000000000000 ) ) ;
#49 = COORDINATED_UNIVERSAL_TIME_OFFSET ( 8, 0, .AHEAD. ) ;
#50 = CC_DESIGN_PERSON_AND_ORGANIZATION_ASSIGNMENT ( #309, #73, ( #293 ) ) ;
#51 = PERSON ( 'Î´Ö¸¶¨', 'Î´Ö¸¶¨', 'Î´Ö¸¶¨', ('Î´Ö¸¶¨'), ('Î´Ö¸¶¨'), ('Î´Ö¸¶¨') ) ;
#52 = EDGE_LOOP ( 'NONE', ( #216 ) ) ;
#53 = DIRECTION ( 'NONE',  ( 0.000000000000000000, 0.000000000000000000, 1.000000000000000000 ) ) ;
#54 = DIRECTION ( 'NONE',  ( 0.000000000000000000, 0.000000000000000000, 1.000000000000000000 ) ) ;
#55 = AXIS2_PLACEMENT_3D ( 'NONE', #108, #48, #234 ) ;
#56 = EDGE_CURVE ( 'NONE', #352, #352, #185, .T. ) ;
#57 = CARTESIAN_POINT ( 'NONE',  ( 0.000000000000000000, 33.92000000000000171, 0.000000000000000000 ) ) ;
#58 = PLANE ( 'NONE',  #120 ) ;
#59 = DIRECTION ( 'NONE',  ( 0.000000000000000000, -0.000000000000000000, -1.000000000000000000 ) ) ;
#60 = AXIS2_PLACEMENT_3D ( 'NONE', #116, #231, #375 ) ;
#61 = VERTEX_POINT ( 'NONE', #91 ) ;
#62 = VERTEX_POINT ( 'NONE', #97 ) ;
#63 = CARTESIAN_POINT ( 'NONE',  ( 0.000000000000000000, 4.019999999999999574, 17.75000000000000355 ) ) ;
#64 = EDGE_LOOP ( 'NONE', ( #190 ) ) ;
#65 = CC_DESIGN_PERSON_AND_ORGANIZATION_ASSIGNMENT ( #275, #226, ( #18 ) ) ;
#66 = AXIS2_PLACEMENT_3D ( 'NONE', #192, #361, #136 ) ;
#67 = CARTESIAN_POINT ( 'NONE',  ( 0.000000000000000000, 40.50000000000000000, 0.000000000000000000 ) ) ;
#68 = APPROVAL_PERSON_ORGANIZATION ( #252, #372, #246 ) ;
#69 = ORIENTED_EDGE ( 'NONE', *, *, #333, .F. ) ;
#70 = CARTESIAN_POINT ( 'NONE',  ( 0.000000000000000000, 40.50000000000000000, 19.50000000000000355 ) ) ;
#71 = APPROVAL_DATE_TIME ( #77, #162 ) ;
#72 = ORIENTED_EDGE ( 'NONE', *, *, #188, .T. ) ;
#73 = PERSON_AND_ORGANIZATION_ROLE ( 'design_owner' ) ;
#74 = CIRCLE ( 'NONE', #320, 18.24999999999999645 ) ;
#75 = CIRCLE ( 'NONE', #285, 17.75000000000000355 ) ;
#76 = DIRECTION ( 'NONE',  ( 0.000000000000000000, 0.000000000000000000, 1.000000000000000000 ) ) ;
#77 = DATE_AND_TIME ( #304, #105 ) ;
#78 = CARTESIAN_POINT ( 'NONE',  ( 0.000000000000000000, 1.020000000000000018, 0.000000000000000000 ) ) ;
#79 =( NAMED_UNIT ( * ) PLANE_ANGLE_UNIT ( ) SI_UNIT ( $, .RADIAN. ) );
#80 = FACE_BOUND ( 'NONE', #174, .T. ) ;
#81 = ORIENTED_EDGE ( 'NONE', *, *, #56, .T. ) ;
#82 = CONICAL_SURFACE ( 'NONE', #148, 18.19724800116095764, 0.9731072671823355336 ) ;
#83 = PLANE ( 'NONE',  #329 ) ;
#84 = CARTESIAN_POINT ( 'NONE',  ( 0.000000000000000000, 33.92000000000000171, 0.000000000000000000 ) ) ;
#85 = FACE_OUTER_BOUND ( 'NONE', #138, .T. ) ;
#86 = AXIS2_PLACEMENT_3D ( 'NONE', #201, #22, #54 ) ;
#87 = ORGANIZATION ( 'Î´Ö¸¶¨', 'Î´Ö¸¶¨', '' ) ;
#88 = APPLICATION_CONTEXT ( 'configuration controlled 3d designs of mechanical parts and assemblies' ) ;
#89 = DIRECTION ( 'NONE',  ( 0.000000000000000000, 0.000000000000000000, 1.000000000000000000 ) ) ;
#90 = DIRECTION ( 'NONE',  ( 0.000000000000000000, -1.000000000000000000, 0.000000000000000000 ) ) ;
#91 = CARTESIAN_POINT ( 'NONE',  ( 0.000000000000000000, 39.99999999999999289, 20.49999999999999645 ) ) ;
#92 = ADVANCED_BREP_SHAPE_REPRESENTATION ( '670034', ( #214, #251 ), #126 ) ;
#93 = CIRCLE ( 'NONE', #301, 19.00000000000000000 ) ;
#94 = FACE_BOUND ( 'NONE', #218, .T. ) ;
#95 = VERTEX_POINT ( 'NONE', #70 ) ;
#96 = PRODUCT_DEFINITION ( 'Î´Öª', '', #18, #318 ) ;
#97 = CARTESIAN_POINT ( 'NONE',  ( 0.000000000000000000, 40.00000000000000000, 19.00000000000000000 ) ) ;
#98 = AXIS2_PLACEMENT_3D ( 'NONE', #179, #90, #150 ) ;
#99 = DIRECTION ( 'NONE',  ( 0.000000000000000000, 0.000000000000000000, 1.000000000000000000 ) ) ;
#100 = ORIENTED_EDGE ( 'NONE', *, *, #13, .F. ) ;
#101 = ADVANCED_FACE ( 'NONE', ( #118, #258 ), #114, .F. ) ;
#102 = APPROVAL_DATE_TIME ( #359, #312 ) ;
#103 = ORIENTED_EDGE ( 'NONE', *, *, #322, .T. ) ;
#104 = CALENDAR_DATE ( 2025, 23, 5 ) ;
#105 = LOCAL_TIME ( 12, 3, 53.00000000000000000, #49 ) ;
#106 = CARTESIAN_POINT ( 'NONE',  ( 0.000000000000000000, 40.50000000000000000, 0.000000000000000000 ) ) ;
#107 = DATE_AND_TIME ( #363, #330 ) ;
#108 = CARTESIAN_POINT ( 'NONE',  ( 0.000000000000000000, 0.4999999999999935052, 0.000000000000000000 ) ) ;
#109 = ADVANCED_FACE ( 'NONE', ( #152, #342 ), #147, .T. ) ;
#110 = DIRECTION ( 'NONE',  ( 1.000000000000000000, 0.000000000000000000, 0.000000000000000000 ) ) ;
#111 = EDGE_LOOP ( 'NONE', ( #134 ) ) ;
#112 = CC_DESIGN_SECURITY_CLASSIFICATION ( #314, ( #18 ) ) ;
#113 = ORIENTED_EDGE ( 'NONE', *, *, #348, .F. ) ;
#114 = CONICAL_SURFACE ( 'NONE', #229, 19.00000000000000000, 0.7853981633974517207 ) ;
#115 = PRODUCT_RELATED_PRODUCT_CATEGORY ( 'detail', '', ( #293 ) ) ;
#116 = CARTESIAN_POINT ( 'NONE',  ( 0.000000000000000000, 33.92000000000000171, 0.000000000000000000 ) ) ;
#117 = SHAPE_DEFINITION_REPRESENTATION ( #202, #92 ) ;
#118 = FACE_OUTER_BOUND ( 'NONE', #184, .T. ) ;
#119 = DIRECTION ( 'NONE',  ( 0.000000000000000000, 1.000000000000000000, 0.000000000000000000 ) ) ;
#120 = AXIS2_PLACEMENT_3D ( 'NONE', #151, #313, #59 ) ;
#121 = DIRECTION ( 'NONE',  ( -0.000000000000000000, -1.000000000000000000, -0.000000000000000000 ) ) ;
#122 = ADVANCED_FACE ( 'NONE', ( #24 ), #340, .F. ) ;
#123 = CARTESIAN_POINT ( 'NONE',  ( 0.000000000000000000, 0.8406666800019709784, 0.000000000000000000 ) ) ;
#124 = VERTEX_POINT ( 'NONE', #349 ) ;
#125 = CIRCLE ( 'NONE', #36, 19.99999999999998934 ) ;
#126 =( GEOMETRIC_REPRESENTATION_CONTEXT ( 3 ) GLOBAL_UNCERTAINTY_ASSIGNED_CONTEXT ( ( #12 ) ) GLOBAL_UNIT_ASSIGNED_CONTEXT ( ( #135, #79, #197 ) ) REPRESENTATION_CONTEXT ( 'NONE', 'WORKASPACE' ) );
#127 = ADVANCED_FACE ( 'NONE', ( #341, #289 ), #369, .F. ) ;
#128 = DIRECTION ( 'NONE',  ( 0.000000000000000000, 1.000000000000000000, 0.000000000000000000 ) ) ;
#129 = CARTESIAN_POINT ( 'NONE',  ( 0.000000000000000000, 40.50000000000000000, 0.000000000000000000 ) ) ;
#130 = ORIENTED_EDGE ( 'NONE', *, *, #30, .T. ) ;
#131 = CARTESIAN_POINT ( 'NONE',  ( 0.000000000000000000, 37.50000000000000000, 0.000000000000000000 ) ) ;
#132 = CIRCLE ( 'NONE', #368, 19.00000000000000000 ) ;
#133 = APPROVAL_STATUS ( 'not_yet_approved' ) ;
#134 = ORIENTED_EDGE ( 'NONE', *, *, #291, .T. ) ;
#135 =( LENGTH_UNIT ( ) NAMED_UNIT ( * ) SI_UNIT ( .MILLI., .METRE. ) );
#136 = DIRECTION ( 'NONE',  ( 0.000000000000000000, 0.000000000000000000, 1.000000000000000000 ) ) ;
#137 = DATE_TIME_ROLE ( 'classification_date' ) ;
#138 = EDGE_LOOP ( 'NONE', ( #283 ) ) ;
#139 = PERSON_AND_ORGANIZATION ( #51, #87 ) ;
#140 = AXIS2_PLACEMENT_3D ( 'NONE', #305, #249, #256 ) ;
#141 = CC_DESIGN_PERSON_AND_ORGANIZATION_ASSIGNMENT ( #254, #44, ( #18 ) ) ;
#142 = APPROVAL_PERSON_ORGANIZATION ( #365, #312, #16 ) ;
#143 = DIRECTION ( 'NONE',  ( 0.000000000000000000, 0.000000000000000000, -1.000000000000000000 ) ) ;
#144 = APPROVAL_STATUS ( 'not_yet_approved' ) ;
#145 = EDGE_LOOP ( 'NONE', ( #253 ) ) ;
#146 = ORIENTED_EDGE ( 'NONE', *, *, #345, .F. ) ;
#147 = CYLINDRICAL_SURFACE ( 'NONE', #250, 20.49999999999999645 ) ;
#148 = AXIS2_PLACEMENT_3D ( 'NONE', #203, #315, #346 ) ;
#149 = CARTESIAN_POINT ( 'NONE',  ( 0.000000000000000000, 37.50000000000000000, 0.000000000000000000 ) ) ;
#150 = DIRECTION ( 'NONE',  ( 0.000000000000000000, -0.000000000000000000, -1.000000000000000000 ) ) ;
#151 = CARTESIAN_POINT ( 'NONE',  ( 0.000000000000000000, 1.019999999999999130, 0.000000000000000000 ) ) ;
#152 = FACE_OUTER_BOUND ( 'NONE', #64, .T. ) ;
#153 = DIRECTION ( 'NONE',  ( -0.000000000000000000, -1.000000000000000000, -0.000000000000000000 ) ) ;
#154 = ADVANCED_FACE ( 'NONE', ( #317, #85 ), #83, .T. ) ;
#155 = VERTEX_POINT ( 'NONE', #211 ) ;
#156 = LOCAL_TIME ( 12, 3, 53.00000000000000000, #193 ) ;
#157 = CARTESIAN_POINT ( 'NONE',  ( 0.000000000000000000, 33.92000000000000171, 17.75000000000000355 ) ) ;
#158 = EDGE_LOOP ( 'NONE', ( #15 ) ) ;
#159 = CARTESIAN_POINT ( 'NONE',  ( 0.000000000000000000, 33.92000000000000171, 18.50000000000000000 ) ) ;
#160 = EDGE_LOOP ( 'NONE', ( #166 ) ) ;
#161 = CARTESIAN_POINT ( 'NONE',  ( 0.000000000000000000, 33.92000000000000171, 0.000000000000000000 ) ) ;
#162 = APPROVAL ( #144, 'Î´Ö¸¶¨' ) ;
#163 = AXIS2_PLACEMENT_3D ( 'NONE', #149, #260, #370 ) ;
#164 = APPLICATION_PROTOCOL_DEFINITION ( 'international standard', 'config_control_design', 1994, #243 ) ;
#165 = DIRECTION ( 'NONE',  ( 0.000000000000000000, 1.000000000000000000, 0.000000000000000000 ) ) ;
#166 = ORIENTED_EDGE ( 'NONE', *, *, #345, .T. ) ;
#167 = EDGE_CURVE ( 'NONE', #215, #215, #221, .T. ) ;
#168 = DATE_AND_TIME ( #104, #362 ) ;
#169 = ORIENTED_EDGE ( 'NONE', *, *, #188, .F. ) ;
#170 = COORDINATED_UNIVERSAL_TIME_OFFSET ( 8, 0, .AHEAD. ) ;
#171 = CIRCLE ( 'NONE', #373, 18.50000000000000000 ) ;
#172 = EDGE_LOOP ( 'NONE', ( #81 ) ) ;
#173 = PERSON_AND_ORGANIZATION_ROLE ( 'classification_officer' ) ;
#174 = EDGE_LOOP ( 'NONE', ( #335 ) ) ;
#175 = DIRECTION ( 'NONE',  ( 0.000000000000000000, -0.000000000000000000, 1.000000000000000000 ) ) ;
#176 = DIRECTION ( 'NONE',  ( 0.000000000000000000, 1.000000000000000000, 0.000000000000000000 ) ) ;
#177 = DIRECTION ( 'NONE',  ( 0.000000000000000000, -1.000000000000000000, 0.000000000000000000 ) ) ;
#178 = CARTESIAN_POINT ( 'NONE',  ( 0.000000000000000000, 40.50000000000000000, 0.000000000000000000 ) ) ;
#179 = CARTESIAN_POINT ( 'NONE',  ( 0.000000000000000000, 4.019999999999999574, 0.000000000000000000 ) ) ;
#180 = AXIS2_PLACEMENT_3D ( 'NONE', #196, #307, #143 ) ;
#181 = CARTESIAN_POINT ( 'NONE',  ( 0.000000000000000000, 0.000000000000000000, 19.48491322421536509 ) ) ;
#182 = ADVANCED_FACE ( 'NONE', ( #265 ), #58, .T. ) ;
#183 = FACE_BOUND ( 'NONE', #278, .T. ) ;
#184 = EDGE_LOOP ( 'NONE', ( #100 ) ) ;
#185 = CIRCLE ( 'NONE', #55, 20.49999999999999645 ) ;
#186 = DIRECTION ( 'NONE',  ( -0.000000000000000000, 1.000000000000000000, -0.000000000000000000 ) ) ;
#187 = ORIENTED_EDGE ( 'NONE', *, *, #322, .F. ) ;
#188 = EDGE_CURVE ( 'NONE', #324, #324, #245, .T. ) ;
#189 = DIRECTION ( 'NONE',  ( 0.000000000000000000, 1.000000000000000000, 0.000000000000000000 ) ) ;
#190 = ORIENTED_EDGE ( 'NONE', *, *, #8, .T. ) ;
#191 = APPROVAL_DATE_TIME ( #107, #372 ) ;
#192 = CARTESIAN_POINT ( 'NONE',  ( 0.000000000000000000, 39.99999999999999289, 0.000000000000000000 ) ) ;
#193 = COORDINATED_UNIVERSAL_TIME_OFFSET ( 8, 0, .AHEAD. ) ;
#194 = FACE_OUTER_BOUND ( 'NONE', #198, .T. ) ;
#195 = MECHANICAL_CONTEXT ( 'NONE', #88, 'mechanical' ) ;
#196 = CARTESIAN_POINT ( 'NONE',  ( 0.000000000000000000, 40.50000000000000000, 0.000000000000000000 ) ) ;
#197 =( NAMED_UNIT ( * ) SI_UNIT ( $, .STERADIAN. ) SOLID_ANGLE_UNIT ( ) );
#198 = EDGE_LOOP ( 'NONE', ( #32 ) ) ;
#199 = ORIENTED_EDGE ( 'NONE', *, *, #242, .T. ) ;
#200 = CYLINDRICAL_SURFACE ( 'NONE', #163, 19.00000000000000000 ) ;
#201 = CARTESIAN_POINT ( 'NONE',  ( 0.000000000000000000, 0.000000000000000000, 0.000000000000000000 ) ) ;
#202 = PRODUCT_DEFINITION_SHAPE ( 'NONE', 'NONE',  #96 ) ;
#203 = CARTESIAN_POINT ( 'NONE',  ( 0.000000000000000000, 0.8765775819648655709, 0.000000000000000000 ) ) ;
#204 = CIRCLE ( 'NONE', #338, 19.50000000000000355 ) ;
#205 = CC_DESIGN_PERSON_AND_ORGANIZATION_ASSIGNMENT ( #327, #19, ( #96 ) ) ;
#206 = FACE_OUTER_BOUND ( 'NONE', #366, .T. ) ;
#207 = CYLINDRICAL_SURFACE ( 'NONE', #354, 17.75000000000000355 ) ;
#208 = CARTESIAN_POINT ( 'NONE',  ( 0.000000000000000000, 0.8406666800019709784, -18.24999999999999645 ) ) ;
#209 = AXIS2_PLACEMENT_3D ( 'NONE', #161, #128, #319 ) ;
#210 = VERTEX_POINT ( 'NONE', #292 ) ;
#211 = CARTESIAN_POINT ( 'NONE',  ( 0.000000000000000000, 37.50000000000000000, 19.00000000000000000 ) ) ;
#212 = VERTEX_POINT ( 'NONE', #299 ) ;
#213 = EDGE_LOOP ( 'NONE', ( #364 ) ) ;
#214 = MANIFOLD_SOLID_BREP ( 'Í¹Ì¨-À­Éì2', #257 ) ;
#215 = VERTEX_POINT ( 'NONE', #181 ) ;
#216 = ORIENTED_EDGE ( 'NONE', *, *, #355, .T. ) ;
#217 = CARTESIAN_POINT ( 'NONE',  ( 0.000000000000000000, 0.000000000000000000, 0.000000000000000000 ) ) ;
#218 = EDGE_LOOP ( 'NONE', ( #337 ) ) ;
#219 = CC_DESIGN_PERSON_AND_ORGANIZATION_ASSIGNMENT ( #336, #173, ( #314 ) ) ;
#220 = EDGE_LOOP ( 'NONE', ( #247 ) ) ;
#221 = CIRCLE ( 'NONE', #86, 19.48491322421536509 ) ;
#222 = CONICAL_SURFACE ( 'NONE', #4, 20.49999999999999645, 0.7853981633974482790 ) ;
#223 = DIRECTION ( 'NONE',  ( -0.000000000000000000, -1.000000000000000000, -0.000000000000000000 ) ) ;
#224 = COORDINATED_UNIVERSAL_TIME_OFFSET ( 8, 0, .AHEAD. ) ;
#225 = EDGE_LOOP ( 'NONE', ( #227 ) ) ;
#226 = PERSON_AND_ORGANIZATION_ROLE ( 'design_supplier' ) ;
#227 = ORIENTED_EDGE ( 'NONE', *, *, #30, .F. ) ;
#228 = CC_DESIGN_DATE_AND_TIME_ASSIGNMENT ( #334, #302, ( #96 ) ) ;
#229 = AXIS2_PLACEMENT_3D ( 'NONE', #27, #311, #284 ) ;
#230 = EDGE_LOOP ( 'NONE', ( #130 ) ) ;
#231 = DIRECTION ( 'NONE',  ( -0.000000000000000000, 1.000000000000000000, -0.000000000000000000 ) ) ;
#232 = FACE_OUTER_BOUND ( 'NONE', #145, .T. ) ;
#233 = EDGE_CURVE ( 'NONE', #347, #347, #308, .T. ) ;
#234 = DIRECTION ( 'NONE',  ( 0.000000000000000000, 0.000000000000000000, 1.000000000000000000 ) ) ;
#235 = CC_DESIGN_APPROVAL ( #162, ( #18 ) ) ;
#236 = FACE_BOUND ( 'NONE', #332, .T. ) ;
#237 = DIRECTION ( 'NONE',  ( 0.000000000000000000, 1.000000000000000000, 0.000000000000000000 ) ) ;
#238 = DIRECTION ( 'NONE',  ( 0.000000000000000000, 0.000000000000000000, 1.000000000000000000 ) ) ;
#239 = AXIS2_PLACEMENT_3D ( 'NONE', #328, #165, #255 ) ;
#240 = DIRECTION ( 'NONE',  ( 0.000000000000000000, 1.000000000000000000, 0.000000000000000000 ) ) ;
#241 = VERTEX_POINT ( 'NONE', #208 ) ;
#242 = EDGE_CURVE ( 'NONE', #241, #241, #74, .T. ) ;
#243 = APPLICATION_CONTEXT ( 'configuration controlled 3d designs of mechanical parts and assemblies' ) ;
#244 = DIRECTION ( 'NONE',  ( 0.000000000000000000, 1.000000000000000000, 0.000000000000000000 ) ) ;
#245 = CIRCLE ( 'NONE', #273, 20.00000000000000355 ) ;
#246 = APPROVAL_ROLE ( '' ) ;
#247 = ORIENTED_EDGE ( 'NONE', *, *, #348, .T. ) ;
#248 = APPROVAL_STATUS ( 'not_yet_approved' ) ;
#249 = DIRECTION ( 'NONE',  ( 0.000000000000000000, 1.000000000000000000, 0.000000000000000000 ) ) ;
#250 = AXIS2_PLACEMENT_3D ( 'NONE', #178, #262, #288 ) ;
#251 = AXIS2_PLACEMENT_3D ( 'NONE', #217, #282, #110 ) ;
#252 = PERSON_AND_ORGANIZATION ( #51, #87 ) ;
#253 = ORIENTED_EDGE ( 'NONE', *, *, #167, .F. ) ;
#254 = PERSON_AND_ORGANIZATION ( #51, #87 ) ;
#255 = DIRECTION ( 'NONE',  ( 0.000000000000000000, -0.000000000000000000, 1.000000000000000000 ) ) ;
#256 = DIRECTION ( 'NONE',  ( 0.000000000000000000, -0.000000000000000000, 1.000000000000000000 ) ) ;
#257 = CLOSED_SHELL ( 'NONE', ( #109, #339, #25, #259, #1, #127, #154, #295, #306, #360, #43, #101, #264, #182, #122 ) ) ;
#258 = FACE_BOUND ( 'NONE', #39, .T. ) ;
#259 = ADVANCED_FACE ( 'NONE', ( #287, #261 ), #200, .F. ) ;
#260 = DIRECTION ( 'NONE',  ( -0.000000000000000000, 1.000000000000000000, -0.000000000000000000 ) ) ;
#261 = FACE_OUTER_BOUND ( 'NONE', #325, .T. ) ;
#262 = DIRECTION ( 'NONE',  ( -0.000000000000000000, -1.000000000000000000, -0.000000000000000000 ) ) ;
#263 = AXIS2_PLACEMENT_3D ( 'NONE', #78, #45, #76 ) ;
#264 = ADVANCED_FACE ( 'NONE', ( #232, #236 ), #82, .F. ) ;
#265 = FACE_OUTER_BOUND ( 'NONE', #230, .T. ) ;
#266 = CARTESIAN_POINT ( 'NONE',  ( 0.000000000000000000, 52.63879502661795584, 0.000000000000000000 ) ) ;
#267 = DIRECTION ( 'NONE',  ( -0.000000000000000000, 1.000000000000000000, -0.000000000000000000 ) ) ;
#268 = AXIS2_PLACEMENT_3D ( 'NONE', #57, #176, #344 ) ;
#269 = APPROVAL_PERSON_ORGANIZATION ( #139, #162, #331 ) ;
#270 = CARTESIAN_POINT ( 'NONE',  ( 0.000000000000000000, 0.4999999999999935052, 20.49999999999999645 ) ) ;
#271 = DIRECTION ( 'NONE',  ( 0.000000000000000000, 0.000000000000000000, 1.000000000000000000 ) ) ;
#272 = CC_DESIGN_DATE_AND_TIME_ASSIGNMENT ( #168, #137, ( #314 ) ) ;
#273 = AXIS2_PLACEMENT_3D ( 'NONE', #374, #121, #53 ) ;
#274 = PLANE ( 'NONE',  #140 ) ;
#275 = PERSON_AND_ORGANIZATION ( #51, #87 ) ;
#276 = FACE_BOUND ( 'NONE', #11, .T. ) ;
#277 = CALENDAR_DATE ( 2025, 23, 5 ) ;
#278 = EDGE_LOOP ( 'NONE', ( #169 ) ) ;
#279 = CC_DESIGN_APPROVAL ( #312, ( #96 ) ) ;
#280 = APPLICATION_PROTOCOL_DEFINITION ( 'international standard', 'config_control_design', 1994, #88 ) ;
#281 = EDGE_LOOP ( 'NONE', ( #199 ) ) ;
#282 = DIRECTION ( 'NONE',  ( 0.000000000000000000, 0.000000000000000000, 1.000000000000000000 ) ) ;
#283 = ORIENTED_EDGE ( 'NONE', *, *, #333, .T. ) ;
#284 = DIRECTION ( 'NONE',  ( 0.000000000000000000, 0.000000000000000000, 1.000000000000000000 ) ) ;
#285 = AXIS2_PLACEMENT_3D ( 'NONE', #351, #189, #99 ) ;
#286 = CC_DESIGN_APPROVAL ( #372, ( #314 ) ) ;
#287 = FACE_OUTER_BOUND ( 'NONE', #160, .T. ) ;
#288 = DIRECTION ( 'NONE',  ( 0.000000000000000000, 0.000000000000000000, -1.000000000000000000 ) ) ;
#289 = FACE_OUTER_BOUND ( 'NONE', #111, .T. ) ;
#290 = CARTESIAN_POINT ( 'NONE',  ( 0.000000000000000000, 4.019999999999999574, 0.000000000000000000 ) ) ;
#291 = EDGE_CURVE ( 'NONE', #210, #210, #171, .T. ) ;
#292 = CARTESIAN_POINT ( 'NONE',  ( 0.000000000000000000, 37.50000000000000000, 18.50000000000000000 ) ) ;
#293 = PRODUCT ( '670034', '670034', '', ( #195 ) ) ;
#294 = DIRECTION ( 'NONE',  ( 0.000000000000000000, 0.000000000000000000, 1.000000000000000000 ) ) ;
#295 = ADVANCED_FACE ( 'NONE', ( #206, #316 ), #207, .F. ) ;
#296 = FACE_OUTER_BOUND ( 'NONE', #298, .T. ) ;
#297 = FACE_OUTER_BOUND ( 'NONE', #281, .T. ) ;
#298 = EDGE_LOOP ( 'NONE', ( #358 ) ) ;
#299 = CARTESIAN_POINT ( 'NONE',  ( 0.000000000000000000, 40.50000000000000000, 19.99999999999998934 ) ) ;
#300 = FACE_OUTER_BOUND ( 'NONE', #6, .T. ) ;
#301 = AXIS2_PLACEMENT_3D ( 'NONE', #3, #240, #271 ) ;
#302 = DATE_TIME_ROLE ( 'creation_date' ) ;
#303 = FACE_BOUND ( 'NONE', #20, .T. ) ;
#304 = CALENDAR_DATE ( 2025, 23, 5 ) ;
#305 = CARTESIAN_POINT ( 'NONE',  ( 0.000000000000000000, 37.50000000000000000, 0.000000000000000000 ) ) ;
#306 = ADVANCED_FACE ( 'NONE', ( #297, #323 ), #35, .F. ) ;
#307 = DIRECTION ( 'NONE',  ( 0.000000000000000000, -1.000000000000000000, 0.000000000000000000 ) ) ;
#308 = CIRCLE ( 'NONE', #268, 17.75000000000000355 ) ;
#309 = PERSON_AND_ORGANIZATION ( #51, #87 ) ;
#310 = FACE_OUTER_BOUND ( 'NONE', #21, .T. ) ;
#311 = DIRECTION ( 'NONE',  ( 0.000000000000000000, 1.000000000000000000, 0.000000000000000000 ) ) ;
#312 = APPROVAL ( #248, 'Î´Ö¸¶¨' ) ;
#313 = DIRECTION ( 'NONE',  ( 0.000000000000000000, -1.000000000000000000, 0.000000000000000000 ) ) ;
#314 = SECURITY_CLASSIFICATION ( '', '', #14 ) ;
#315 = DIRECTION ( 'NONE',  ( 0.000000000000000000, -1.000000000000000000, 0.000000000000000000 ) ) ;
#316 = FACE_OUTER_BOUND ( 'NONE', #158, .T. ) ;
#317 = FACE_BOUND ( 'NONE', #213, .T. ) ;
#318 = DESIGN_CONTEXT ( 'detailed design', #243, 'design' ) ;
#319 = DIRECTION ( 'NONE',  ( 0.000000000000000000, 0.000000000000000000, 1.000000000000000000 ) ) ;
#320 = AXIS2_PLACEMENT_3D ( 'NONE', #123, #177, #26 ) ;
#321 = DIRECTION ( 'NONE',  ( 0.000000000000000000, -0.000000000000000000, 1.000000000000000000 ) ) ;
#322 = EDGE_CURVE ( 'NONE', #155, #155, #132, .T. ) ;
#323 = FACE_OUTER_BOUND ( 'NONE', #225, .T. ) ;
#324 = VERTEX_POINT ( 'NONE', #33 ) ;
#325 = EDGE_LOOP ( 'NONE', ( #187 ) ) ;
#326 = DIRECTION ( 'NONE',  ( 0.000000000000000000, 0.000000000000000000, 1.000000000000000000 ) ) ;
#327 = PERSON_AND_ORGANIZATION ( #51, #87 ) ;
#328 = CARTESIAN_POINT ( 'NONE',  ( 0.000000000000000000, 0.000000000000000000, 0.000000000000000000 ) ) ;
#329 = AXIS2_PLACEMENT_3D ( 'NONE', #84, #29, #175 ) ;
#330 = LOCAL_TIME ( 12, 3, 53.00000000000000000, #356 ) ;
#331 = APPROVAL_ROLE ( '' ) ;
#332 = EDGE_LOOP ( 'NONE', ( #46 ) ) ;
#333 = EDGE_CURVE ( 'NONE', #7, #7, #350, .T. ) ;
#334 = DATE_AND_TIME ( #277, #156 ) ;
#335 = ORIENTED_EDGE ( 'NONE', *, *, #167, .T. ) ;
#336 = PERSON_AND_ORGANIZATION ( #51, #87 ) ;
#337 = ORIENTED_EDGE ( 'NONE', *, *, #13, .T. ) ;
#338 = AXIS2_PLACEMENT_3D ( 'NONE', #106, #223, #367 ) ;
#339 = ADVANCED_FACE ( 'NONE', ( #94, #5 ), #40, .T. ) ;
#340 = PLANE ( 'NONE',  #98 ) ;
#341 = FACE_OUTER_BOUND ( 'NONE', #357, .T. ) ;
#342 = FACE_OUTER_BOUND ( 'NONE', #172, .T. ) ;
#343 = LOCAL_TIME ( 12, 3, 53.00000000000000000, #170 ) ;
#344 = DIRECTION ( 'NONE',  ( 0.000000000000000000, 0.000000000000000000, 1.000000000000000000 ) ) ;
#345 = EDGE_CURVE ( 'NONE', #62, #62, #93, .T. ) ;
#346 = DIRECTION ( 'NONE',  ( 0.000000000000000000, 0.000000000000000000, -1.000000000000000000 ) ) ;
#347 = VERTEX_POINT ( 'NONE', #157 ) ;
#348 = EDGE_CURVE ( 'NONE', #353, #353, #75, .T. ) ;
#349 = CARTESIAN_POINT ( 'NONE',  ( 0.000000000000000000, 1.020000000000000018, 18.24999999999999645 ) ) ;
#350 = CIRCLE ( 'NONE', #209, 18.50000000000000000 ) ;
#351 = CARTESIAN_POINT ( 'NONE',  ( 0.000000000000000000, 4.019999999999999574, 0.000000000000000000 ) ) ;
#352 = VERTEX_POINT ( 'NONE', #270 ) ;
#353 = VERTEX_POINT ( 'NONE', #63 ) ;
#354 = AXIS2_PLACEMENT_3D ( 'NONE', #290, #267, #238 ) ;
#355 = EDGE_CURVE ( 'NONE', #212, #212, #125, .T. ) ;
#356 = COORDINATED_UNIVERSAL_TIME_OFFSET ( 8, 0, .AHEAD. ) ;
#357 = EDGE_LOOP ( 'NONE', ( #69 ) ) ;
#358 = ORIENTED_EDGE ( 'NONE', *, *, #56, .F. ) ;
#359 = DATE_AND_TIME ( #47, #343 ) ;
#360 = ADVANCED_FACE ( 'NONE', ( #183, #296 ), #222, .T. ) ;
#361 = DIRECTION ( 'NONE',  ( 0.000000000000000000, -1.000000000000000000, 0.000000000000000000 ) ) ;
#362 = LOCAL_TIME ( 12, 3, 53.00000000000000000, #224 ) ;
#363 = CALENDAR_DATE ( 2025, 23, 5 ) ;
#364 = ORIENTED_EDGE ( 'NONE', *, *, #233, .F. ) ;
#365 = PERSON_AND_ORGANIZATION ( #51, #87 ) ;
#366 = EDGE_LOOP ( 'NONE', ( #113 ) ) ;
#367 = DIRECTION ( 'NONE',  ( 0.000000000000000000, 0.000000000000000000, 1.000000000000000000 ) ) ;
#368 = AXIS2_PLACEMENT_3D ( 'NONE', #131, #244, #294 ) ;
#369 = CYLINDRICAL_SURFACE ( 'NONE', #60, 18.50000000000000000 ) ;
#370 = DIRECTION ( 'NONE',  ( 0.000000000000000000, 0.000000000000000000, 1.000000000000000000 ) ) ;
#371 = CARTESIAN_POINT ( 'NONE',  ( 0.000000000000000000, 37.50000000000000000, 0.000000000000000000 ) ) ;
#372 = APPROVAL ( #133, 'Î´Ö¸¶¨' ) ;
#373 = AXIS2_PLACEMENT_3D ( 'NONE', #371, #119, #89 ) ;
#374 = CARTESIAN_POINT ( 'NONE',  ( 0.000000000000000000, 0.000000000000000000, 0.000000000000000000 ) ) ;
#375 = DIRECTION ( 'NONE',  ( 0.000000000000000000, 0.000000000000000000, 1.000000000000000000 ) ) ;
ENDSEC;
END-ISO-10303-21;
