ISO-10303-21;
HEADER;
FILE_DESCRIPTION (( 'STEP AP203' ),
    '1' );
FILE_NAME ('TAE-M4M6.STEP',
    '2019-07-23T01:33:31',
    ( '' ),
    ( '' ),
    'SwSTEP 2.0',
    'SolidWorks 2019',
    '' );
FILE_SCHEMA (( 'CONFIG_CONTROL_DESIGN' ));
ENDSEC;

DATA;
#1 = DIRECTION ( 'NONE',  ( 0.0000000000000000000, 0.0000000000000000000, -1.000000000000000000 ) ) ;
#2 = APPROVAL ( #75, 'UNSPECIFIED' ) ;
#3 = CIRCLE ( 'NONE', #65, 3.000000000000000444 ) ;
#4 =( GEOMETRIC_REPRESENTATION_CONTEXT ( 3 ) GLOBAL_UNCERTAINTY_ASSIGNED_CONTEXT ( ( #18 ) ) GLOBAL_UNIT_ASSIGNED_CONTEXT ( ( #8, #208, #308 ) ) REPRESENTATION_CONTEXT ( 'NONE', 'WORKASPACE' ) );
#5 = CARTESIAN_POINT ( 'NONE',  ( 0.5000000000000038858, 0.0000000000000000000, 0.0000000000000000000 ) ) ;
#6 = ORIENTED_EDGE ( 'NONE', *, *, #196, .T. ) ;
#7 = EDGE_CURVE ( 'NONE', #282, #286, #85, .T. ) ;
#8 =( LENGTH_UNIT ( ) NAMED_UNIT ( * ) SI_UNIT ( .MILLI., .METRE. ) );
#9 = ORIENTED_EDGE ( 'NONE', *, *, #114, .T. ) ;
#10 = AXIS2_PLACEMENT_3D ( 'NONE', #115, #272, #294 ) ;
#11 = APPROVAL_DATE_TIME ( #153, #330 ) ;
#12 = CIRCLE ( 'NONE', #283, 2.500000000000010658 ) ;
#13 = ORIENTED_EDGE ( 'NONE', *, *, #55, .F. ) ;
#14 = SECURITY_CLASSIFICATION_LEVEL ( 'unclassified' ) ;
#15 = CARTESIAN_POINT ( 'NONE',  ( 13.39999999999999858, 0.0000000000000000000, 0.0000000000000000000 ) ) ;
#16 = CALENDAR_DATE ( 2019, 23, 7 ) ;
#17 = ORIENTED_EDGE ( 'NONE', *, *, #118, .T. ) ;
#18 = UNCERTAINTY_MEASURE_WITH_UNIT (LENGTH_MEASURE( 1.000000000000000082E-05 ), #8, 'distance_accuracy_value', 'NONE');
#19 = CC_DESIGN_PERSON_AND_ORGANIZATION_ASSIGNMENT ( #211, #238, ( #95 ) ) ;
#20 = DIRECTION ( 'NONE',  ( -1.000000000000000000, -0.0000000000000000000, -0.0000000000000000000 ) ) ;
#21 = COORDINATED_UNIVERSAL_TIME_OFFSET ( 8, 0, .AHEAD. ) ;
#22 = ORIENTED_EDGE ( 'NONE', *, *, #23, .F. ) ;
#23 = EDGE_CURVE ( 'NONE', #230, #91, #152, .T. ) ;
#24 = DIRECTION ( 'NONE',  ( 1.000000000000000000, 0.0000000000000000000, 0.0000000000000000000 ) ) ;
#25 = DIRECTION ( 'NONE',  ( -1.000000000000000000, 0.0000000000000000000, 0.0000000000000000000 ) ) ;
#26 = CC_DESIGN_APPROVAL ( #105, ( #80 ) ) ;
#27 = DIRECTION ( 'NONE',  ( -1.000000000000000000, -0.0000000000000000000, -0.0000000000000000000 ) ) ;
#28 = CC_DESIGN_PERSON_AND_ORGANIZATION_ASSIGNMENT ( #124, #122, ( #37 ) ) ;
#29 = DIRECTION ( 'NONE',  ( 0.0000000000000000000, 0.0000000000000000000, -1.000000000000000000 ) ) ;
#30 = DIRECTION ( 'NONE',  ( -1.000000000000000000, -0.0000000000000000000, -0.0000000000000000000 ) ) ;
#31 = LINE ( 'NONE', #253, #147 ) ;
#32 = EDGE_CURVE ( 'NONE', #175, #282, #265, .T. ) ;
#33 = DIRECTION ( 'NONE',  ( 1.000000000000000000, 0.0000000000000000000, 0.0000000000000000000 ) ) ;
#34 = DIRECTION ( 'NONE',  ( -1.000000000000000000, -0.0000000000000000000, -0.0000000000000000000 ) ) ;
#35 = ORIENTED_EDGE ( 'NONE', *, *, #340, .F. ) ;
#36 = AXIS2_PLACEMENT_3D ( 'NONE', #302, #27, #352 ) ;
#37 = SECURITY_CLASSIFICATION ( '', '', #14 ) ;
#38 = PERSON_AND_ORGANIZATION_ROLE ( 'design_owner' ) ;
#39 = EDGE_CURVE ( 'NONE', #348, #286, #155, .T. ) ;
#40 = FACE_OUTER_BOUND ( 'NONE', #319, .T. ) ;
#41 = ORIENTED_EDGE ( 'NONE', *, *, #317, .T. ) ;
#42 = CIRCLE ( 'NONE', #273, 2.500000000000010658 ) ;
#43 = ORIENTED_EDGE ( 'NONE', *, *, #317, .F. ) ;
#44 = DIRECTION ( 'NONE',  ( 1.000000000000000000, 0.0000000000000000000, 0.0000000000000000000 ) ) ;
#45 = APPROVAL_STATUS ( 'not_yet_approved' ) ;
#46 = DIRECTION ( 'NONE',  ( 0.7071067811865463515, 0.0000000000000000000, -0.7071067811865487940 ) ) ;
#47 = FACE_OUTER_BOUND ( 'NONE', #254, .T. ) ;
#48 = AXIS2_PLACEMENT_3D ( 'NONE', #280, #171, #60 ) ;
#49 = ADVANCED_FACE ( 'NONE', ( #47 ), #58, .T. ) ;
#50 = CARTESIAN_POINT ( 'NONE',  ( 0.0000000000000000000, 2.143131898507864600E-16, 1.499999999999994449 ) ) ;
#51 = CARTESIAN_POINT ( 'NONE',  ( 5.799999999999999822, 0.0000000000000000000, 0.0000000000000000000 ) ) ;
#52 = DIRECTION ( 'NONE',  ( -1.000000000000000000, -0.0000000000000000000, -0.0000000000000000000 ) ) ;
#53 = CONICAL_SURFACE ( 'NONE', #185, 2.500000000000010658, 0.7853981633974466137 ) ;
#54 = CARTESIAN_POINT ( 'NONE',  ( 12.90000000000000746, 0.0000000000000000000, 0.0000000000000000000 ) ) ;
#55 = EDGE_CURVE ( 'NONE', #239, #151, #267, .T. ) ;
#56 = CARTESIAN_POINT ( 'NONE',  ( 0.0000000000000000000, 0.0000000000000000000, 0.0000000000000000000 ) ) ;
#57 = DIRECTION ( 'NONE',  ( -1.000000000000000000, -0.0000000000000000000, -0.0000000000000000000 ) ) ;
#58 = CONICAL_SURFACE ( 'NONE', #298, 2.500000000000010658, 0.7853981633974466137 ) ;
#59 = LOCAL_TIME ( 9, 33, 31.00000000000000000, #341 ) ;
#60 = DIRECTION ( 'NONE',  ( 0.0000000000000000000, 0.0000000000000000000, -1.000000000000000000 ) ) ;
#61 = ORIENTED_EDGE ( 'NONE', *, *, #118, .F. ) ;
#62 = EDGE_LOOP ( 'NONE', ( #132, #79 ) ) ;
#63 = DIRECTION ( 'NONE',  ( 0.0000000000000000000, 0.0000000000000000000, -1.000000000000000000 ) ) ;
#64 = EDGE_CURVE ( 'NONE', #74, #151, #3, .T. ) ;
#65 = AXIS2_PLACEMENT_3D ( 'NONE', #130, #162, #107 ) ;
#66 = DIRECTION ( 'NONE',  ( -1.000000000000000000, -0.0000000000000000000, -0.0000000000000000000 ) ) ;
#67 = PERSON_AND_ORGANIZATION ( #154, #329 ) ;
#68 = ORIENTED_EDGE ( 'NONE', *, *, #32, .T. ) ;
#69 = SHAPE_DEFINITION_REPRESENTATION ( #134, #264 ) ;
#70 = DIRECTION ( 'NONE',  ( 0.7071067811865463515, 8.659560562354950115E-17, 0.7071067811865487940 ) ) ;
#71 = AXIS2_PLACEMENT_3D ( 'NONE', #202, #137, #324 ) ;
#72 = ORIENTED_EDGE ( 'NONE', *, *, #353, .F. ) ;
#73 = CALENDAR_DATE ( 2019, 23, 7 ) ;
#74 = VERTEX_POINT ( 'NONE', #218 ) ;
#75 = APPROVAL_STATUS ( 'not_yet_approved' ) ;
#76 = ORIENTED_EDGE ( 'NONE', *, *, #89, .T. ) ;
#77 = EDGE_CURVE ( 'NONE', #348, #175, #339, .T. ) ;
#78 = VECTOR ( 'NONE', #70, 1000.000000000000000 ) ;
#79 = ORIENTED_EDGE ( 'NONE', *, *, #353, .T. ) ;
#80 = PRODUCT_DEFINITION_FORMATION_WITH_SPECIFIED_SOURCE ( 'ANY', '', #225, .NOT_KNOWN. ) ;
#81 = CARTESIAN_POINT ( 'NONE',  ( 5.799999999999999822, 0.0000000000000000000, 0.0000000000000000000 ) ) ;
#82 = DIRECTION ( 'NONE',  ( -1.000000000000000000, -0.0000000000000000000, -0.0000000000000000000 ) ) ;
#83 = ADVANCED_FACE ( 'NONE', ( #111 ), #198, .T. ) ;
#84 = DIRECTION ( 'NONE',  ( -1.000000000000000000, 0.0000000000000000000, 0.0000000000000000000 ) ) ;
#85 = CIRCLE ( 'NONE', #166, 2.000000000000000000 ) ;
#86 = LOCAL_TIME ( 9, 33, 31.00000000000000000, #189 ) ;
#87 = DIRECTION ( 'NONE',  ( 0.0000000000000000000, 0.0000000000000000000, -1.000000000000000000 ) ) ;
#88 = DIRECTION ( 'NONE',  ( 1.000000000000000000, -0.0000000000000000000, -0.0000000000000000000 ) ) ;
#89 = EDGE_CURVE ( 'NONE', #204, #74, #276, .T. ) ;
#90 = DIRECTION ( 'NONE',  ( 1.000000000000000000, 0.0000000000000000000, 0.0000000000000000000 ) ) ;
#91 = VERTEX_POINT ( 'NONE', #165 ) ;
#92 = AXIS2_PLACEMENT_3D ( 'NONE', #333, #57, #96 ) ;
#93 = CYLINDRICAL_SURFACE ( 'NONE', #92, 3.000000000000000444 ) ;
#94 = EDGE_LOOP ( 'NONE', ( #293, #76, #184, #13 ) ) ;
#95 = PRODUCT_DEFINITION ( 'UNKNOWN', '', #80, #210 ) ;
#96 = DIRECTION ( 'NONE',  ( 0.0000000000000000000, 0.0000000000000000000, 1.000000000000000000 ) ) ;
#97 = EDGE_LOOP ( 'NONE', ( #291, #106, #346, #217 ) ) ;
#98 = ADVANCED_FACE ( 'NONE', ( #250 ), #222, .T. ) ;
#99 = PERSON_AND_ORGANIZATION ( #154, #329 ) ;
#100 = DIRECTION ( 'NONE',  ( 0.0000000000000000000, 0.0000000000000000000, 1.000000000000000000 ) ) ;
#101 = CIRCLE ( 'NONE', #299, 3.000000000000000444 ) ;
#102 = COORDINATED_UNIVERSAL_TIME_OFFSET ( 8, 0, .AHEAD. ) ;
#103 = CC_DESIGN_APPROVAL ( #2, ( #95 ) ) ;
#104 = VERTEX_POINT ( 'NONE', #200 ) ;
#105 = APPROVAL ( #161, 'UNSPECIFIED' ) ;
#106 = ORIENTED_EDGE ( 'NONE', *, *, #77, .F. ) ;
#107 = DIRECTION ( 'NONE',  ( 0.0000000000000000000, 0.0000000000000000000, -1.000000000000000000 ) ) ;
#108 = PLANE ( 'NONE',  #10 ) ;
#109 = CARTESIAN_POINT ( 'NONE',  ( 5.799999999999999822, 2.449293598294706414E-16, -2.000000000000000000 ) ) ;
#110 = CARTESIAN_POINT ( 'NONE',  ( 12.90000000000000746, 0.0000000000000000000, 3.000000000000000444 ) ) ;
#111 = FACE_OUTER_BOUND ( 'NONE', #94, .T. ) ;
#112 = VECTOR ( 'NONE', #46, 1000.000000000000000 ) ;
#113 = CONICAL_SURFACE ( 'NONE', #355, 2.000000000000000000, 0.7853981633974500554 ) ;
#114 = EDGE_CURVE ( 'NONE', #91, #230, #199, .T. ) ;
#115 = CARTESIAN_POINT ( 'NONE',  ( 0.0000000000000000000, 0.0000000000000000000, 0.0000000000000000000 ) ) ;
#116 = DIRECTION ( 'NONE',  ( 0.0000000000000000000, 0.0000000000000000000, -1.000000000000000000 ) ) ;
#117 = CARTESIAN_POINT ( 'NONE',  ( 13.39999999999999858, 3.367778697655228407E-16, -2.500000000000010658 ) ) ;
#118 = EDGE_CURVE ( 'NONE', #286, #282, #146, .T. ) ;
#119 = LINE ( 'NONE', #142, #136 ) ;
#120 = ORIENTED_EDGE ( 'NONE', *, *, #7, .T. ) ;
#121 = DIRECTION ( 'NONE',  ( 1.000000000000000000, 0.0000000000000000000, 0.0000000000000000000 ) ) ;
#122 = PERSON_AND_ORGANIZATION_ROLE ( 'classification_officer' ) ;
#123 = DIRECTION ( 'NONE',  ( 0.0000000000000000000, 0.0000000000000000000, -1.000000000000000000 ) ) ;
#124 = PERSON_AND_ORGANIZATION ( #154, #329 ) ;
#125 = EDGE_LOOP ( 'NONE', ( #315, #342 ) ) ;
#126 = COORDINATED_UNIVERSAL_TIME_OFFSET ( 8, 0, .AHEAD. ) ;
#127 = CARTESIAN_POINT ( 'NONE',  ( 5.799999999999999822, 0.0000000000000000000, 0.0000000000000000000 ) ) ;
#128 = ADVANCED_FACE ( 'NONE', ( #331, #195 ), #295, .F. ) ;
#129 = VECTOR ( 'NONE', #82, 1000.000000000000000 ) ;
#130 = CARTESIAN_POINT ( 'NONE',  ( 5.799999999999999822, 0.0000000000000000000, 0.0000000000000000000 ) ) ;
#131 = DATE_AND_TIME ( #16, #59 ) ;
#132 = ORIENTED_EDGE ( 'NONE', *, *, #269, .T. ) ;
#133 = DIRECTION ( 'NONE',  ( 1.000000000000000000, 0.0000000000000000000, 0.0000000000000000000 ) ) ;
#134 = PRODUCT_DEFINITION_SHAPE ( 'NONE', 'NONE',  #95 ) ;
#135 = DIRECTION ( 'NONE',  ( 1.000000000000000000, 0.0000000000000000000, 0.0000000000000000000 ) ) ;
#136 = VECTOR ( 'NONE', #145, 1000.000000000000000 ) ;
#137 = DIRECTION ( 'NONE',  ( -1.000000000000000000, -0.0000000000000000000, -0.0000000000000000000 ) ) ;
#138 = CARTESIAN_POINT ( 'NONE',  ( 12.90000000000000746, 3.673940397442059868E-16, -3.000000000000000444 ) ) ;
#139 = CARTESIAN_POINT ( 'NONE',  ( 13.39999999999999858, 3.673940397442059868E-16, -3.000000000000000444 ) ) ;
#140 = VECTOR ( 'NONE', #20, 1000.000000000000000 ) ;
#141 = APPROVAL_PERSON_ORGANIZATION ( #67, #330, #182 ) ;
#142 = CARTESIAN_POINT ( 'NONE',  ( 13.39999999999999858, 3.061616997868395960E-16, -2.500000000000010658 ) ) ;
#143 = MECHANICAL_CONTEXT ( 'NONE', #240, 'mechanical' ) ;
#144 = EDGE_LOOP ( 'NONE', ( #72, #41, #260, #241 ) ) ;
#145 = DIRECTION ( 'NONE',  ( -0.7071067811865487940, 8.659560562354919300E-17, -0.7071067811865463515 ) ) ;
#146 = CIRCLE ( 'NONE', #328, 2.000000000000000000 ) ;
#147 = VECTOR ( 'NONE', #66, 1000.000000000000000 ) ;
#148 = CC_DESIGN_APPROVAL ( #330, ( #37 ) ) ;
#149 = APPLICATION_PROTOCOL_DEFINITION ( 'international standard', 'config_control_design', 1994, #257 ) ;
#150 = ADVANCED_FACE ( 'NONE', ( #243 ), #53, .T. ) ;
#151 = VERTEX_POINT ( 'NONE', #301 ) ;
#152 = CIRCLE ( 'NONE', #335, 2.000000000000000000 ) ;
#153 = DATE_AND_TIME ( #73, #261 ) ;
#154 = PERSON ( 'UNSPECIFIED', 'UNSPECIFIED', 'UNSPECIFIED', ('UNSPECIFIED'), ('UNSPECIFIED'), ('UNSPECIFIED') ) ;
#155 = LINE ( 'NONE', #159, #112 ) ;
#156 = ORIENTED_EDGE ( 'NONE', *, *, #269, .F. ) ;
#157 = CC_DESIGN_PERSON_AND_ORGANIZATION_ASSIGNMENT ( #266, #187, ( #80 ) ) ;
#158 = APPROVAL_DATE_TIME ( #131, #105 ) ;
#159 = CARTESIAN_POINT ( 'NONE',  ( 0.5000000000000038858, 0.0000000000000000000, -2.000000000000000000 ) ) ;
#160 = VECTOR ( 'NONE', #349, 1000.000000000000000 ) ;
#161 = APPROVAL_STATUS ( 'not_yet_approved' ) ;
#162 = DIRECTION ( 'NONE',  ( 1.000000000000000000, 0.0000000000000000000, 0.0000000000000000000 ) ) ;
#163 = LINE ( 'NONE', #327, #160 ) ;
#164 = ADVANCED_FACE ( 'NONE', ( #246 ), #108, .F. ) ;
#165 = CARTESIAN_POINT ( 'NONE',  ( 5.799999999999999822, 0.0000000000000000000, 2.000000000000000000 ) ) ;
#166 = AXIS2_PLACEMENT_3D ( 'NONE', #192, #236, #123 ) ;
#167 = FACE_OUTER_BOUND ( 'NONE', #228, .T. ) ;
#168 = DIRECTION ( 'NONE',  ( 1.000000000000000000, -0.0000000000000000000, -0.0000000000000000000 ) ) ;
#169 = CC_DESIGN_PERSON_AND_ORGANIZATION_ASSIGNMENT ( #174, #38, ( #225 ) ) ;
#170 = DIRECTION ( 'NONE',  ( -1.000000000000000000, -0.0000000000000000000, -0.0000000000000000000 ) ) ;
#171 = DIRECTION ( 'NONE',  ( -1.000000000000000000, 0.0000000000000000000, 0.0000000000000000000 ) ) ;
#172 = AXIS2_PLACEMENT_3D ( 'NONE', #51, #24, #87 ) ;
#173 = DIRECTION ( 'NONE',  ( 0.0000000000000000000, 0.0000000000000000000, 1.000000000000000000 ) ) ;
#174 = PERSON_AND_ORGANIZATION ( #154, #329 ) ;
#175 = VERTEX_POINT ( 'NONE', #50 ) ;
#176 = CARTESIAN_POINT ( 'NONE',  ( 0.0000000000000000000, 0.0000000000000000000, 0.0000000000000000000 ) ) ;
#177 = ORIENTED_EDGE ( 'NONE', *, *, #219, .F. ) ;
#178 = AXIS2_PLACEMENT_3D ( 'NONE', #54, #25, #275 ) ;
#179 = DIRECTION ( 'NONE',  ( 1.000000000000000000, -0.0000000000000000000, -0.0000000000000000000 ) ) ;
#180 = ORIENTED_EDGE ( 'NONE', *, *, #292, .F. ) ;
#181 = EDGE_CURVE ( 'NONE', #204, #239, #255, .T. ) ;
#182 = APPROVAL_ROLE ( '' ) ;
#183 = APPROVAL_ROLE ( '' ) ;
#184 = ORIENTED_EDGE ( 'NONE', *, *, #64, .T. ) ;
#185 = AXIS2_PLACEMENT_3D ( 'NONE', #326, #84, #226 ) ;
#186 = CIRCLE ( 'NONE', #48, 3.000000000000000444 ) ;
#187 = PERSON_AND_ORGANIZATION_ROLE ( 'design_supplier' ) ;
#188 = ORIENTED_EDGE ( 'NONE', *, *, #277, .T. ) ;
#189 = COORDINATED_UNIVERSAL_TIME_OFFSET ( 8, 0, .AHEAD. ) ;
#190 = ORIENTED_EDGE ( 'NONE', *, *, #181, .F. ) ;
#191 = DATE_TIME_ROLE ( 'creation_date' ) ;
#192 = CARTESIAN_POINT ( 'NONE',  ( 0.5000000000000038858, 0.0000000000000000000, 0.0000000000000000000 ) ) ;
#193 = AXIS2_PLACEMENT_3D ( 'NONE', #56, #30, #248 ) ;
#194 = LOCAL_TIME ( 9, 33, 31.00000000000000000, #126 ) ;
#195 = FACE_BOUND ( 'NONE', #321, .T. ) ;
#196 = EDGE_CURVE ( 'NONE', #104, #239, #163, .T. ) ;
#197 = CARTESIAN_POINT ( 'NONE',  ( 13.39999999999999858, 0.0000000000000000000, 0.0000000000000000000 ) ) ;
#198 = CYLINDRICAL_SURFACE ( 'NONE', #278, 3.000000000000000444 ) ;
#199 = CIRCLE ( 'NONE', #316, 2.000000000000000000 ) ;
#200 = CARTESIAN_POINT ( 'NONE',  ( 13.39999999999999858, 0.0000000000000000000, 2.500000000000010658 ) ) ;
#201 = AXIS2_PLACEMENT_3D ( 'NONE', #176, #173, #33 ) ;
#202 = CARTESIAN_POINT ( 'NONE',  ( 5.799999999999999822, 0.0000000000000000000, 0.0000000000000000000 ) ) ;
#203 = LINE ( 'NONE', #256, #350 ) ;
#204 = VERTEX_POINT ( 'NONE', #138 ) ;
#205 = CC_DESIGN_SECURITY_CLASSIFICATION ( #37, ( #80 ) ) ;
#206 = APPLICATION_PROTOCOL_DEFINITION ( 'international standard', 'config_control_design', 1994, #240 ) ;
#207 = ORIENTED_EDGE ( 'NONE', *, *, #23, .T. ) ;
#208 =( NAMED_UNIT ( * ) PLANE_ANGLE_UNIT ( ) SI_UNIT ( $, .RADIAN. ) );
#209 = ORIENTED_EDGE ( 'NONE', *, *, #55, .T. ) ;
#210 = DESIGN_CONTEXT ( 'detailed design', #257, 'design' ) ;
#211 = PERSON_AND_ORGANIZATION ( #154, #329 ) ;
#212 = ORIENTED_EDGE ( 'NONE', *, *, #277, .F. ) ;
#213 = PERSON_AND_ORGANIZATION_ROLE ( 'creator' ) ;
#214 = ORIENTED_EDGE ( 'NONE', *, *, #292, .T. ) ;
#215 = CALENDAR_DATE ( 2019, 23, 7 ) ;
#216 = CARTESIAN_POINT ( 'NONE',  ( 13.39999999999999858, 0.0000000000000000000, 3.000000000000000444 ) ) ;
#217 = ORIENTED_EDGE ( 'NONE', *, *, #7, .F. ) ;
#218 = CARTESIAN_POINT ( 'NONE',  ( 5.799999999999999822, 3.673940397442059868E-16, -3.000000000000000444 ) ) ;
#219 = EDGE_CURVE ( 'NONE', #175, #348, #268, .T. ) ;
#220 = AXIS2_PLACEMENT_3D ( 'NONE', #245, #52, #29 ) ;
#221 = CYLINDRICAL_SURFACE ( 'NONE', #71, 2.000000000000000000 ) ;
#222 = PLANE ( 'NONE',  #323 ) ;
#223 = FACE_OUTER_BOUND ( 'NONE', #97, .T. ) ;
#224 = DIRECTION ( 'NONE',  ( 0.0000000000000000000, 0.0000000000000000000, 1.000000000000000000 ) ) ;
#225 = PRODUCT ( 'TAE-M4M6', 'TAE-M4M6', '', ( #143 ) ) ;
#226 = DIRECTION ( 'NONE',  ( 0.0000000000000000000, 0.0000000000000000000, 1.000000000000000000 ) ) ;
#227 = ADVANCED_FACE ( 'NONE', ( #351 ), #221, .T. ) ;
#228 = EDGE_LOOP ( 'NONE', ( #22, #305, #17, #180 ) ) ;
#229 = CARTESIAN_POINT ( 'NONE',  ( 13.39999999999999858, 0.0000000000000000000, 0.0000000000000000000 ) ) ;
#230 = VERTEX_POINT ( 'NONE', #109 ) ;
#231 = ADVANCED_FACE ( 'NONE', ( #167 ), #274, .T. ) ;
#232 = DIRECTION ( 'NONE',  ( 0.0000000000000000000, 0.0000000000000000000, -1.000000000000000000 ) ) ;
#233 = FACE_OUTER_BOUND ( 'NONE', #288, .T. ) ;
#234 = DATE_TIME_ROLE ( 'classification_date' ) ;
#235 = ORIENTED_EDGE ( 'NONE', *, *, #64, .F. ) ;
#236 = DIRECTION ( 'NONE',  ( 1.000000000000000000, -0.0000000000000000000, -0.0000000000000000000 ) ) ;
#237 = ORIENTED_EDGE ( 'NONE', *, *, #39, .F. ) ;
#238 = PERSON_AND_ORGANIZATION_ROLE ( 'creator' ) ;
#239 = VERTEX_POINT ( 'NONE', #110 ) ;
#240 = APPLICATION_CONTEXT ( 'configuration controlled 3d designs of mechanical parts and assemblies' ) ;
#241 = ORIENTED_EDGE ( 'NONE', *, *, #196, .F. ) ;
#242 = MANIFOLD_SOLID_BREP ( '¾É¨¤1', #289 ) ;
#243 = FACE_OUTER_BOUND ( 'NONE', #144, .T. ) ;
#244 = CONICAL_SURFACE ( 'NONE', #345, 2.000000000000000000, 0.7853981633974500554 ) ;
#245 = CARTESIAN_POINT ( 'NONE',  ( 0.0000000000000000000, 0.0000000000000000000, 0.0000000000000000000 ) ) ;
#246 = FACE_OUTER_BOUND ( 'NONE', #125, .T. ) ;
#247 = ADVANCED_FACE ( 'NONE', ( #223 ), #244, .T. ) ;
#248 = DIRECTION ( 'NONE',  ( 0.0000000000000000000, 0.0000000000000000000, -1.000000000000000000 ) ) ;
#249 = APPROVAL_PERSON_ORGANIZATION ( #285, #2, #183 ) ;
#250 = FACE_OUTER_BOUND ( 'NONE', #62, .T. ) ;
#251 = PRODUCT_RELATED_PRODUCT_CATEGORY ( 'detail', '', ( #225 ) ) ;
#252 = CARTESIAN_POINT ( 'NONE',  ( 0.5000000000000038858, 0.0000000000000000000, 0.0000000000000000000 ) ) ;
#253 = CARTESIAN_POINT ( 'NONE',  ( 5.799999999999999822, 0.0000000000000000000, 2.000000000000000000 ) ) ;
#254 = EDGE_LOOP ( 'NONE', ( #43, #156, #6, #190 ) ) ;
#255 = CIRCLE ( 'NONE', #178, 3.000000000000000444 ) ;
#256 = CARTESIAN_POINT ( 'NONE',  ( 5.799999999999999822, 2.449293598294706414E-16, -2.000000000000000000 ) ) ;
#257 = APPLICATION_CONTEXT ( 'configuration controlled 3d designs of mechanical parts and assemblies' ) ;
#258 = DIRECTION ( 'NONE',  ( 0.0000000000000000000, 0.0000000000000000000, -1.000000000000000000 ) ) ;
#259 = PERSON_AND_ORGANIZATION ( #154, #329 ) ;
#260 = ORIENTED_EDGE ( 'NONE', *, *, #325, .F. ) ;
#261 = LOCAL_TIME ( 9, 33, 31.00000000000000000, #102 ) ;
#262 = DATE_AND_TIME ( #215, #300 ) ;
#263 = ORIENTED_EDGE ( 'NONE', *, *, #89, .F. ) ;
#264 = ADVANCED_BREP_SHAPE_REPRESENTATION ( 'TAE-M4M6', ( #242, #201 ), #4 ) ;
#265 = LINE ( 'NONE', #313, #78 ) ;
#266 = PERSON_AND_ORGANIZATION ( #154, #329 ) ;
#267 = LINE ( 'NONE', #216, #140 ) ;
#268 = CIRCLE ( 'NONE', #220, 1.499999999999994449 ) ;
#269 = EDGE_CURVE ( 'NONE', #104, #310, #42, .T. ) ;
#270 = ORIENTED_EDGE ( 'NONE', *, *, #114, .F. ) ;
#271 = DIRECTION ( 'NONE',  ( 0.0000000000000000000, 0.0000000000000000000, -1.000000000000000000 ) ) ;
#272 = DIRECTION ( 'NONE',  ( 1.000000000000000000, 0.0000000000000000000, 0.0000000000000000000 ) ) ;
#273 = AXIS2_PLACEMENT_3D ( 'NONE', #338, #90, #284 ) ;
#274 = CYLINDRICAL_SURFACE ( 'NONE', #36, 2.000000000000000000 ) ;
#275 = DIRECTION ( 'NONE',  ( 0.0000000000000000000, 0.0000000000000000000, -1.000000000000000000 ) ) ;
#276 = LINE ( 'NONE', #139, #129 ) ;
#277 = EDGE_CURVE ( 'NONE', #151, #74, #101, .T. ) ;
#278 = AXIS2_PLACEMENT_3D ( 'NONE', #197, #170, #224 ) ;
#279 = CARTESIAN_POINT ( 'NONE',  ( 0.5000000000000038858, 0.0000000000000000000, 2.000000000000000000 ) ) ;
#280 = CARTESIAN_POINT ( 'NONE',  ( 12.90000000000000746, 0.0000000000000000000, 0.0000000000000000000 ) ) ;
#281 = CARTESIAN_POINT ( 'NONE',  ( 0.0000000000000000000, 0.0000000000000000000, -1.499999999999994449 ) ) ;
#282 = VERTEX_POINT ( 'NONE', #279 ) ;
#283 = AXIS2_PLACEMENT_3D ( 'NONE', #229, #304, #63 ) ;
#284 = DIRECTION ( 'NONE',  ( 0.0000000000000000000, 0.0000000000000000000, -1.000000000000000000 ) ) ;
#285 = PERSON_AND_ORGANIZATION ( #154, #329 ) ;
#286 = VERTEX_POINT ( 'NONE', #307 ) ;
#287 = ADVANCED_FACE ( 'NONE', ( #233 ), #113, .T. ) ;
#288 = EDGE_LOOP ( 'NONE', ( #177, #68, #61, #237 ) ) ;
#289 = CLOSED_SHELL ( 'NONE', ( #287, #150, #83, #231, #227, #164, #128, #303, #98, #49, #247 ) ) ;
#290 = EDGE_LOOP ( 'NONE', ( #212, #235 ) ) ;
#291 = ORIENTED_EDGE ( 'NONE', *, *, #32, .F. ) ;
#292 = EDGE_CURVE ( 'NONE', #91, #282, #31, .T. ) ;
#293 = ORIENTED_EDGE ( 'NONE', *, *, #325, .T. ) ;
#294 = DIRECTION ( 'NONE',  ( 0.0000000000000000000, 0.0000000000000000000, -1.000000000000000000 ) ) ;
#295 = PLANE ( 'NONE',  #172 ) ;
#296 = CC_DESIGN_PERSON_AND_ORGANIZATION_ASSIGNMENT ( #259, #213, ( #80 ) ) ;
#297 = CARTESIAN_POINT ( 'NONE',  ( 13.39999999999999858, 0.0000000000000000000, 0.0000000000000000000 ) ) ;
#298 = AXIS2_PLACEMENT_3D ( 'NONE', #15, #343, #100 ) ;
#299 = AXIS2_PLACEMENT_3D ( 'NONE', #337, #121, #116 ) ;
#300 = LOCAL_TIME ( 9, 33, 31.00000000000000000, #21 ) ;
#301 = CARTESIAN_POINT ( 'NONE',  ( 5.799999999999999822, 0.0000000000000000000, 3.000000000000000444 ) ) ;
#302 = CARTESIAN_POINT ( 'NONE',  ( 5.799999999999999822, 0.0000000000000000000, 0.0000000000000000000 ) ) ;
#303 = ADVANCED_FACE ( 'NONE', ( #40 ), #93, .T. ) ;
#304 = DIRECTION ( 'NONE',  ( 1.000000000000000000, 0.0000000000000000000, 0.0000000000000000000 ) ) ;
#305 = ORIENTED_EDGE ( 'NONE', *, *, #340, .T. ) ;
#306 = CC_DESIGN_DATE_AND_TIME_ASSIGNMENT ( #262, #191, ( #95 ) ) ;
#307 = CARTESIAN_POINT ( 'NONE',  ( 0.5000000000000038858, 2.449293598294706414E-16, -2.000000000000000000 ) ) ;
#308 =( NAMED_UNIT ( * ) SI_UNIT ( $, .STERADIAN. ) SOLID_ANGLE_UNIT ( ) );
#309 = CALENDAR_DATE ( 2019, 23, 7 ) ;
#310 = VERTEX_POINT ( 'NONE', #117 ) ;
#311 = CC_DESIGN_DATE_AND_TIME_ASSIGNMENT ( #320, #234, ( #37 ) ) ;
#312 = DATE_AND_TIME ( #318, #86 ) ;
#313 = CARTESIAN_POINT ( 'NONE',  ( 0.5000000000000038858, 2.449293598294706414E-16, 2.000000000000000000 ) ) ;
#314 = APPROVAL_ROLE ( '' ) ;
#315 = ORIENTED_EDGE ( 'NONE', *, *, #77, .T. ) ;
#316 = AXIS2_PLACEMENT_3D ( 'NONE', #81, #135, #1 ) ;
#317 = EDGE_CURVE ( 'NONE', #310, #204, #119, .T. ) ;
#318 = CALENDAR_DATE ( 2019, 23, 7 ) ;
#319 = EDGE_LOOP ( 'NONE', ( #263, #334, #209, #188 ) ) ;
#320 = DATE_AND_TIME ( #309, #194 ) ;
#321 = EDGE_LOOP ( 'NONE', ( #9, #207 ) ) ;
#322 = EDGE_LOOP ( 'NONE', ( #35, #270, #214, #120 ) ) ;
#323 = AXIS2_PLACEMENT_3D ( 'NONE', #297, #133, #354 ) ;
#324 = DIRECTION ( 'NONE',  ( 0.0000000000000000000, 0.0000000000000000000, 1.000000000000000000 ) ) ;
#325 = EDGE_CURVE ( 'NONE', #239, #204, #186, .T. ) ;
#326 = CARTESIAN_POINT ( 'NONE',  ( 13.39999999999999858, 0.0000000000000000000, 0.0000000000000000000 ) ) ;
#327 = CARTESIAN_POINT ( 'NONE',  ( 13.39999999999999858, 0.0000000000000000000, 2.500000000000010658 ) ) ;
#328 = AXIS2_PLACEMENT_3D ( 'NONE', #332, #168, #271 ) ;
#329 = ORGANIZATION ( 'UNSPECIFIED', 'UNSPECIFIED', '' ) ;
#330 = APPROVAL ( #45, 'UNSPECIFIED' ) ;
#331 = FACE_OUTER_BOUND ( 'NONE', #290, .T. ) ;
#332 = CARTESIAN_POINT ( 'NONE',  ( 0.5000000000000038858, 0.0000000000000000000, 0.0000000000000000000 ) ) ;
#333 = CARTESIAN_POINT ( 'NONE',  ( 13.39999999999999858, 0.0000000000000000000, 0.0000000000000000000 ) ) ;
#334 = ORIENTED_EDGE ( 'NONE', *, *, #181, .T. ) ;
#335 = AXIS2_PLACEMENT_3D ( 'NONE', #127, #44, #347 ) ;
#336 = APPROVAL_PERSON_ORGANIZATION ( #99, #105, #314 ) ;
#337 = CARTESIAN_POINT ( 'NONE',  ( 5.799999999999999822, 0.0000000000000000000, 0.0000000000000000000 ) ) ;
#338 = CARTESIAN_POINT ( 'NONE',  ( 13.39999999999999858, 0.0000000000000000000, 0.0000000000000000000 ) ) ;
#339 = CIRCLE ( 'NONE', #193, 1.499999999999994449 ) ;
#340 = EDGE_CURVE ( 'NONE', #230, #286, #203, .T. ) ;
#341 = COORDINATED_UNIVERSAL_TIME_OFFSET ( 8, 0, .AHEAD. ) ;
#342 = ORIENTED_EDGE ( 'NONE', *, *, #219, .T. ) ;
#343 = DIRECTION ( 'NONE',  ( -1.000000000000000000, 0.0000000000000000000, 0.0000000000000000000 ) ) ;
#344 = APPROVAL_DATE_TIME ( #312, #2 ) ;
#345 = AXIS2_PLACEMENT_3D ( 'NONE', #252, #179, #258 ) ;
#346 = ORIENTED_EDGE ( 'NONE', *, *, #39, .T. ) ;
#347 = DIRECTION ( 'NONE',  ( 0.0000000000000000000, 0.0000000000000000000, -1.000000000000000000 ) ) ;
#348 = VERTEX_POINT ( 'NONE', #281 ) ;
#349 = DIRECTION ( 'NONE',  ( -0.7071067811865487940, 0.0000000000000000000, 0.7071067811865463515 ) ) ;
#350 = VECTOR ( 'NONE', #34, 1000.000000000000000 ) ;
#351 = FACE_OUTER_BOUND ( 'NONE', #322, .T. ) ;
#352 = DIRECTION ( 'NONE',  ( 0.0000000000000000000, 0.0000000000000000000, 1.000000000000000000 ) ) ;
#353 = EDGE_CURVE ( 'NONE', #310, #104, #12, .T. ) ;
#354 = DIRECTION ( 'NONE',  ( 0.0000000000000000000, 0.0000000000000000000, -1.000000000000000000 ) ) ;
#355 = AXIS2_PLACEMENT_3D ( 'NONE', #5, #88, #232 ) ;
ENDSEC;
END-ISO-10303-21;
