ISO-10303-21;
HEADER;
FILE_DESCRIPTION (( 'STEP AP203' ),
    '1' );
FILE_NAME ('PR-B.step',
    '2017-01-11T07:26:08',
    ( '¦K¬P' ),
    ( '' ),
    'SwSTEP 2.0',
    'SolidWorks 2012',
    '' );
FILE_SCHEMA (( 'CONFIG_CONTROL_DESIGN' ));
ENDSEC;

DATA;
#1 = CLOSED_SHELL ( 'NONE', ( #358, #357, #356, #361, #363, #364, #365, #366, #362, #369, #367, #368, #360, #359 ) ) ;
#2 = ORIENTED_EDGE ( 'NONE', *, *, #297, .T. ) ;
#3 = ORIENTED_EDGE ( 'NONE', *, *, #292, .T. ) ;
#4 = ORIENTED_EDGE ( 'NONE', *, *, #294, .F. ) ;
#5 = ORIENTED_EDGE ( 'NONE', *, *, #301, .T. ) ;
#6 = ORIENTED_EDGE ( 'NONE', *, *, #300, .F. ) ;
#7 = ORIENTED_EDGE ( 'NONE', *, *, #294, .T. ) ;
#8 = ORIENTED_EDGE ( 'NONE', *, *, #293, .F. ) ;
#9 = ORIENTED_EDGE ( 'NONE', *, *, #300, .T. ) ;
#10 = ORIENTED_EDGE ( 'NONE', *, *, #295, .F. ) ;
#11 = ORIENTED_EDGE ( 'NONE', *, *, #293, .T. ) ;
#12 = ORIENTED_EDGE ( 'NONE', *, *, #298, .F. ) ;
#13 = ORIENTED_EDGE ( 'NONE', *, *, #297, .F. ) ;
#14 = FACE_OUTER_BOUND ( 'NONE', #197, .T. ) ;
#15 = ORIENTED_EDGE ( 'NONE', *, *, #295, .T. ) ;
#16 = ORIENTED_EDGE ( 'NONE', *, *, #299, .F. ) ;
#17 = ORIENTED_EDGE ( 'NONE', *, *, #331, .T. ) ;
#18 = ORIENTED_EDGE ( 'NONE', *, *, #302, .F. ) ;
#19 = ORIENTED_EDGE ( 'NONE', *, *, #298, .T. ) ;
#20 = ORIENTED_EDGE ( 'NONE', *, *, #299, .T. ) ;
#21 = ORIENTED_EDGE ( 'NONE', *, *, #302, .T. ) ;
#22 = ORIENTED_EDGE ( 'NONE', *, *, #304, .F. ) ;
#23 = ORIENTED_EDGE ( 'NONE', *, *, #296, .F. ) ;
#24 = ORIENTED_EDGE ( 'NONE', *, *, #304, .T. ) ;
#25 = ORIENTED_EDGE ( 'NONE', *, *, #303, .F. ) ;
#26 = ORIENTED_EDGE ( 'NONE', *, *, #331, .F. ) ;
#27 = DESIGN_CONTEXT ( 'detailed design', #98, 'design' ) ;
#28 = PRODUCT_DEFINITION_SHAPE ( 'NONE', 'NONE',  #323 ) ;
#29 = PRODUCT ( 'PR-B', 'PR-B', '', ( #96 ) ) ;
#30 = DIRECTION ( 'NONE',  ( 3.414809992080329000E-017, -1.000000000000000000, -0.0000000000000000000 ) ) ;
#31 = DIRECTION ( 'NONE',  ( 1.000000000000000000, 3.243339832221579500E-017, 0.0000000000000000000 ) ) ;
#32 = DIRECTION ( 'NONE',  ( -3.414809992080329000E-017, 1.000000000000000000, 0.0000000000000000000 ) ) ;
#33 = PLANE ( 'NONE',  #342 ) ;
#34 = DIRECTION ( 'NONE',  ( -1.000000000000000000, 0.0000000000000000000, 0.0000000000000000000 ) ) ;
#35 = CARTESIAN_POINT ( 'NONE',  ( 6.499999999999999100, 0.3000000000000150900, 0.0000000000000000000 ) ) ;
#36 = DIRECTION ( 'NONE',  ( -3.414809992080329000E-017, 1.000000000000000000, 0.0000000000000000000 ) ) ;
#37 = DIRECTION ( 'NONE',  ( -1.000000000000000000, -3.414809992080329000E-017, 0.0000000000000000000 ) ) ;
#38 = CARTESIAN_POINT ( 'NONE',  ( 1.707404996040190100E-016, -12.40000000000007700, 0.0000000000000000000 ) ) ;
#39 = CARTESIAN_POINT ( 'NONE',  ( 6.499999999999999100, -0.7000000000000703400, 0.0000000000000000000 ) ) ;
#40 = PLANE ( 'NONE',  #338 ) ;
#41 = PLANE ( 'NONE',  #340 ) ;
#42 = CARTESIAN_POINT ( 'NONE',  ( 12.69999999999999900, -7.399999999999983500, 0.0000000000000000000 ) ) ;
#43 = DIRECTION ( 'NONE',  ( -3.414809992080329000E-017, 1.000000000000000000, 0.0000000000000000000 ) ) ;
#44 = DIRECTION ( 'NONE',  ( -1.000000000000000000, -3.414809992080329000E-017, 0.0000000000000000000 ) ) ;
#45 = PLANE ( 'NONE',  #337 ) ;
#46 = CARTESIAN_POINT ( 'NONE',  ( 8.499999999999964500, -11.39999999999996800, 0.0000000000000000000 ) ) ;
#47 = DIRECTION ( 'NONE',  ( -3.414809992080329000E-017, 1.000000000000000000, 0.0000000000000000000 ) ) ;
#48 = DIRECTION ( 'NONE',  ( -1.000000000000000000, -3.414809992080329000E-017, 0.0000000000000000000 ) ) ;
#49 = DIRECTION ( 'NONE',  ( -3.414809992080329000E-017, 1.000000000000000000, 0.0000000000000000000 ) ) ;
#50 = DIRECTION ( 'NONE',  ( -1.000000000000000000, 0.0000000000000000000, 0.0000000000000000000 ) ) ;
#51 = DIRECTION ( 'NONE',  ( 3.414809992080329000E-017, -1.000000000000000000, -0.0000000000000000000 ) ) ;
#52 = DIRECTION ( 'NONE',  ( 1.000000000000000000, 3.414809992080329000E-017, 0.0000000000000000000 ) ) ;
#53 = CARTESIAN_POINT ( 'NONE',  ( 1.707404996040190100E-016, -12.40000000000007700, 0.0000000000000000000 ) ) ;
#54 = DIRECTION ( 'NONE',  ( -1.000000000000000000, 0.0000000000000000000, 0.0000000000000000000 ) ) ;
#55 = CARTESIAN_POINT ( 'NONE',  ( 1.365923996832132800E-016, -11.40000000000000400, 0.0000000000000000000 ) ) ;
#56 = DIRECTION ( 'NONE',  ( -3.414809992080329000E-017, 1.000000000000000000, 0.0000000000000000000 ) ) ;
#57 = CARTESIAN_POINT ( 'NONE',  ( 15.00000000000003200, -12.40000000000003900, 0.0000000000000000000 ) ) ;
#58 = DIRECTION ( 'NONE',  ( -3.414809992080329000E-017, 1.000000000000000000, 0.0000000000000000000 ) ) ;
#59 = PLANE ( 'NONE',  #332 ) ;
#60 = DIRECTION ( 'NONE',  ( -1.000000000000000000, 0.0000000000000000000, 0.0000000000000000000 ) ) ;
#61 = DIRECTION ( 'NONE',  ( 3.414809992080329000E-017, -1.000000000000000000, -0.0000000000000000000 ) ) ;
#62 = DIRECTION ( 'NONE',  ( 1.000000000000000000, 3.414809992080329000E-017, 0.0000000000000000000 ) ) ;
#63 = CARTESIAN_POINT ( 'NONE',  ( 1.707404996040190100E-016, -12.40000000000007700, 0.0000000000000000000 ) ) ;
#64 = CARTESIAN_POINT ( 'NONE',  ( 5.249999999999999100, -5.399999999999983500, 0.0000000000000000000 ) ) ;
#65 = DIRECTION ( 'NONE',  ( -3.414809992080329000E-017, 1.000000000000000000, 0.0000000000000000000 ) ) ;
#66 = PLANE ( 'NONE',  #329 ) ;
#67 = DIRECTION ( 'NONE',  ( -1.000000000000000000, 0.0000000000000000000, 0.0000000000000000000 ) ) ;
#68 = DIRECTION ( 'NONE',  ( 3.414809992080329000E-017, -1.000000000000000000, -0.0000000000000000000 ) ) ;
#69 = DIRECTION ( 'NONE',  ( 1.000000000000000000, 3.414809992080329000E-017, 0.0000000000000000000 ) ) ;
#70 = CARTESIAN_POINT ( 'NONE',  ( 1.707404996040190100E-016, -12.40000000000007700, 0.0000000000000000000 ) ) ;
#71 = DIRECTION ( 'NONE',  ( -1.000000000000000000, 0.0000000000000000000, 0.0000000000000000000 ) ) ;
#72 = CARTESIAN_POINT ( 'NONE',  ( 1.707404996040190100E-016, -12.40000000000007700, 0.0000000000000000000 ) ) ;
#73 = DIRECTION ( 'NONE',  ( -3.414809992080329000E-017, 1.000000000000000000, 0.0000000000000000000 ) ) ;
#74 = CARTESIAN_POINT ( 'NONE',  ( -9.500000000000076400, -11.40000000000000000, 0.0000000000000000000 ) ) ;
#75 = CARTESIAN_POINT ( 'NONE',  ( -5.249999999999999100, -11.39999999999993600, 0.0000000000000000000 ) ) ;
#76 = CARTESIAN_POINT ( 'NONE',  ( -6.499999999999999100, -0.7000000000000705700, 0.0000000000000000000 ) ) ;
#77 = CARTESIAN_POINT ( 'NONE',  ( -3.299999999999999800, -5.399999999999983500, 0.0000000000000000000 ) ) ;
#78 = CARTESIAN_POINT ( 'NONE',  ( -11.70000000000005400, 0.3000000000000151400, 0.0000000000000000000 ) ) ;
#79 = CARTESIAN_POINT ( 'NONE',  ( -12.69999999999999900, -7.399999999999984400, 0.0000000000000000000 ) ) ;
#80 = CARTESIAN_POINT ( 'NONE',  ( -9.500000000000076400, -12.40000000000007700, 0.0000000000000000000 ) ) ;
#81 = CARTESIAN_POINT ( 'NONE',  ( -15.99999999999999600, -7.399999999999985300, 0.0000000000000000000 ) ) ;
#82 = CARTESIAN_POINT ( 'NONE',  ( -5.249999999999999100, -5.399999999999983500, 0.0000000000000000000 ) ) ;
#83 = CARTESIAN_POINT ( 'NONE',  ( -3.300000000000000300, -0.7000000000000704500, 0.0000000000000000000 ) ) ;
#84 = CARTESIAN_POINT ( 'NONE',  ( -15.99999999999999600, -11.40000000000000400, 0.0000000000000000000 ) ) ;
#85 = CARTESIAN_POINT ( 'NONE',  ( -6.500000000000000000, 0.3000000000000153100, 0.0000000000000000000 ) ) ;
#86 = CARTESIAN_POINT ( 'NONE',  ( -12.70000000000000100, -0.8999999999999290800, 0.0000000000000000000 ) ) ;
#87 = CARTESIAN_POINT ( 'NONE',  ( -15.00000000000003200, -12.40000000000000200, 0.0000000000000000000 ) ) ;
#88 = CARTESIAN_POINT ( 'NONE',  ( 0.0000000000000000000, 0.0000000000000000000, 0.0000000000000000000 ) ) ;
#89 =( LENGTH_UNIT ( ) NAMED_UNIT ( * ) SI_UNIT ( .MILLI., .METRE. ) );
#90 =( NAMED_UNIT ( * ) PLANE_ANGLE_UNIT ( ) SI_UNIT ( $, .RADIAN. ) );
#91 =( NAMED_UNIT ( * ) SI_UNIT ( $, .STERADIAN. ) SOLID_ANGLE_UNIT ( ) );
#92 = APPLICATION_PROTOCOL_DEFINITION ( 'international standard', 'config_control_design', 1994, #93 ) ;
#93 = APPLICATION_CONTEXT ( 'configuration controlled 3d designs of mechanical parts and assemblies' ) ;
#94 = DIRECTION ( 'NONE',  ( 0.0000000000000000000, 0.0000000000000000000, 1.000000000000000000 ) ) ;
#95 = DIRECTION ( 'NONE',  ( 1.000000000000000000, 0.0000000000000000000, 0.0000000000000000000 ) ) ;
#96 = MECHANICAL_CONTEXT ( 'NONE', #93, 'mechanical' ) ;
#97 = PERSON_AND_ORGANIZATION_ROLE ( 'design_owner' ) ;
#98 = APPLICATION_CONTEXT ( 'configuration controlled 3d designs of mechanical parts and assemblies' ) ;
#99 = APPLICATION_PROTOCOL_DEFINITION ( 'international standard', 'config_control_design', 1994, #98 ) ;
#100 = APPROVAL_STATUS ( 'not_yet_approved' ) ;
#101 = APPROVAL_ROLE ( '' ) ;
#102 = PERSON_AND_ORGANIZATION_ROLE ( 'creator' ) ;
#103 = DATE_TIME_ROLE ( 'creation_date' ) ;
#104 = APPROVAL_STATUS ( 'not_yet_approved' ) ;
#105 = APPROVAL_ROLE ( '' ) ;
#106 = PERSON_AND_ORGANIZATION_ROLE ( 'creator' ) ;
#107 = PERSON_AND_ORGANIZATION_ROLE ( 'design_supplier' ) ;
#108 = SECURITY_CLASSIFICATION_LEVEL ( 'unclassified' ) ;
#109 = PERSON_AND_ORGANIZATION_ROLE ( 'classification_officer' ) ;
#110 = DATE_TIME_ROLE ( 'classification_date' ) ;
#111 = APPROVAL_STATUS ( 'not_yet_approved' ) ;
#112 = APPROVAL_ROLE ( '' ) ;
#113 = CARTESIAN_POINT ( 'NONE',  ( 1.707404996040164800E-016, -12.40000000000000200, 0.0000000000000000000 ) ) ;
#114 = DIRECTION ( 'NONE',  ( -3.414809992080329000E-017, 1.000000000000000000, 0.0000000000000000000 ) ) ;
#115 = DIRECTION ( 'NONE',  ( -3.414809992080329000E-017, 1.000000000000000000, 0.0000000000000000000 ) ) ;
#116 = DIRECTION ( 'NONE',  ( -1.000000000000000000, -3.336006684570782700E-017, 0.0000000000000000000 ) ) ;
#117 = CARTESIAN_POINT ( 'NONE',  ( -2.219626494852238600E-016, -0.8999999999999286300, 0.0000000000000000000 ) ) ;
#118 = DIRECTION ( 'NONE',  ( -3.414809992080329000E-017, 1.000000000000000000, 0.0000000000000000000 ) ) ;
#119 = CARTESIAN_POINT ( 'NONE',  ( -2.629403693901859400E-016, 0.3000000000000155300, 0.0000000000000000000 ) ) ;
#120 = DIRECTION ( 'NONE',  ( -1.000000000000000000, 0.0000000000000000000, 0.0000000000000000000 ) ) ;
#121 = CARTESIAN_POINT ( 'NONE',  ( 1.707404996040190100E-016, -12.40000000000007700, 0.0000000000000000000 ) ) ;
#122 = CARTESIAN_POINT ( 'NONE',  ( 1.365923996832132800E-016, -11.40000000000000400, 0.0000000000000000000 ) ) ;
#123 = DIRECTION ( 'NONE',  ( -3.414809992080329000E-017, 1.000000000000000000, 0.0000000000000000000 ) ) ;
#124 = DIRECTION ( 'NONE',  ( -3.414809992080329000E-017, 1.000000000000000000, 0.0000000000000000000 ) ) ;
#125 = DIRECTION ( 'NONE',  ( -1.000000000000000000, 0.0000000000000000000, 0.0000000000000000000 ) ) ;
#126 = DIRECTION ( 'NONE',  ( -1.000000000000000000, -3.414809992080328400E-017, 0.0000000000000000000 ) ) ;
#127 = UNCERTAINTY_MEASURE_WITH_UNIT (LENGTH_MEASURE( 1.000000000000000100E-005 ), #89, 'distance_accuracy_value', 'NONE');
#128 = VERTEX_POINT ( 'NONE', #85 ) ;
#129 = EDGE_LOOP ( 'NONE', ( #232 ) ) ;
#130 = VERTEX_POINT ( 'NONE', #84 ) ;
#131 = EDGE_LOOP ( 'NONE', ( #4 ) ) ;
#132 = EDGE_LOOP ( 'NONE', ( #226 ) ) ;
#133 = VERTEX_POINT ( 'NONE', #86 ) ;
#134 = VERTEX_POINT ( 'NONE', #87 ) ;
#135 = EDGE_LOOP ( 'NONE', ( #11 ) ) ;
#136 = VERTEX_POINT ( 'NONE', #81 ) ;
#137 = EDGE_LOOP ( 'NONE', ( #10 ) ) ;
#138 = VERTEX_POINT ( 'NONE', #82 ) ;
#139 = EDGE_LOOP ( 'NONE', ( #21 ) ) ;
#140 = VERTEX_POINT ( 'NONE', #83 ) ;
#141 = CIRCLE ( 'NONE', #353, 15.00000000000003200 ) ;
#142 = DATE_AND_TIME ( #210, #149 ) ;
#143 = FACE_OUTER_BOUND ( 'NONE', #198, .T. ) ;
#144 = EDGE_LOOP ( 'NONE', ( #24 ) ) ;
#145 = FACE_BOUND ( 'NONE', #211, .T. ) ;
#146 = APPROVAL_PERSON_ORGANIZATION ( #206, #308, #112 ) ;
#147 = CYLINDRICAL_SURFACE ( 'NONE', #343, 12.69999999999999900 ) ;
#148 = VERTEX_POINT ( 'NONE', #80 ) ;
#149 = LOCAL_TIME ( 15, 26, 8.000000000000000000, #258 ) ;
#150 = CIRCLE ( 'NONE', #351, 15.99999999999999600 ) ;
#151 = CIRCLE ( 'NONE', #334, 6.500000000000000000 ) ;
#152 = CIRCLE ( 'NONE', #349, 3.299999999999999800 ) ;
#153 = VERTEX_POINT ( 'NONE', #78 ) ;
#154 = VERTEX_POINT ( 'NONE', #79 ) ;
#155 = VERTEX_POINT ( 'NONE', #74 ) ;
#156 = VERTEX_POINT ( 'NONE', #77 ) ;
#157 = VERTEX_POINT ( 'NONE', #75 ) ;
#158 = CYLINDRICAL_SURFACE ( 'NONE', #326, 5.249999999999999100 ) ;
#159 = FACE_OUTER_BOUND ( 'NONE', #194, .T. ) ;
#160 = CYLINDRICAL_SURFACE ( 'NONE', #328, 3.299999999999999800 ) ;
#161 = FACE_OUTER_BOUND ( 'NONE', #131, .T. ) ;
#162 = FACE_OUTER_BOUND ( 'NONE', #220, .T. ) ;
#163 = CYLINDRICAL_SURFACE ( 'NONE', #330, 9.500000000000076400 ) ;
#164 = VERTEX_POINT ( 'NONE', #76 ) ;
#165 = FACE_OUTER_BOUND ( 'NONE', #191, .T. ) ;
#166 = CONICAL_SURFACE ( 'NONE', #336, 15.99999999999999600, 0.7853981633974318500 ) ;
#167 = FACE_OUTER_BOUND ( 'NONE', #222, .T. ) ;
#168 = FACE_BOUND ( 'NONE', #218, .T. ) ;
#169 = FACE_OUTER_BOUND ( 'NONE', #224, .T. ) ;
#170 = FACE_OUTER_BOUND ( 'NONE', #195, .T. ) ;
#171 = CYLINDRICAL_SURFACE ( 'NONE', #335, 15.99999999999999600 ) ;
#172 = FACE_BOUND ( 'NONE', #196, .T. ) ;
#173 = FACE_OUTER_BOUND ( 'NONE', #204, .T. ) ;
#174 = FACE_OUTER_BOUND ( 'NONE', #212, .T. ) ;
#175 = FACE_OUTER_BOUND ( 'NONE', #137, .T. ) ;
#176 = FACE_OUTER_BOUND ( 'NONE', #139, .T. ) ;
#177 = FACE_BOUND ( 'NONE', #201, .T. ) ;
#178 = FACE_BOUND ( 'NONE', #135, .T. ) ;
#179 = FACE_BOUND ( 'NONE', #203, .T. ) ;
#180 = CYLINDRICAL_SURFACE ( 'NONE', #341, 6.499999999999999100 ) ;
#181 = FACE_OUTER_BOUND ( 'NONE', #193, .T. ) ;
#182 = FACE_OUTER_BOUND ( 'NONE', #129, .T. ) ;
#183 = CONICAL_SURFACE ( 'NONE', #345, 11.70000000000005400, 0.6947382761967000300 ) ;
#184 = APPROVAL_DATE_TIME ( #186, #308 ) ;
#185 = FACE_BOUND ( 'NONE', #216, .T. ) ;
#186 = DATE_AND_TIME ( #188, #190 ) ;
#187 = FACE_OUTER_BOUND ( 'NONE', #214, .T. ) ;
#188 = CALENDAR_DATE ( 2017, 11, 1 ) ;
#189 = FACE_OUTER_BOUND ( 'NONE', #192, .T. ) ;
#190 = LOCAL_TIME ( 15, 26, 8.000000000000000000, #209 ) ;
#191 = EDGE_LOOP ( 'NONE', ( #12 ) ) ;
#192 = EDGE_LOOP ( 'NONE', ( #20 ) ) ;
#193 = EDGE_LOOP ( 'NONE', ( #26 ) ) ;
#194 = EDGE_LOOP ( 'NONE', ( #8 ) ) ;
#195 = EDGE_LOOP ( 'NONE', ( #18 ) ) ;
#196 = EDGE_LOOP ( 'NONE', ( #19 ) ) ;
#197 = EDGE_LOOP ( 'NONE', ( #2 ) ) ;
#198 = EDGE_LOOP ( 'NONE', ( #22 ) ) ;
#199 = ORIENTED_EDGE ( 'NONE', *, *, #301, .F. ) ;
#200 = EDGE_LOOP ( 'NONE', ( #25 ) ) ;
#201 = EDGE_LOOP ( 'NONE', ( #13 ) ) ;
#202 = ORGANIZATION ( 'UNSPECIFIED', 'UNSPECIFIED', '' ) ;
#203 = EDGE_LOOP ( 'NONE', ( #199 ) ) ;
#204 = EDGE_LOOP ( 'NONE', ( #16 ) ) ;
#205 = CIRCLE ( 'NONE', #320, 12.70000000000000100 ) ;
#206 = PERSON_AND_ORGANIZATION ( #355, #202 ) ;
#207 = FACE_OUTER_BOUND ( 'NONE', #228, .T. ) ;
#208 = FACE_OUTER_BOUND ( 'NONE', #144, .T. ) ;
#209 = COORDINATED_UNIVERSAL_TIME_OFFSET ( 8, 0, .AHEAD. ) ;
#210 = CALENDAR_DATE ( 2017, 11, 1 ) ;
#211 = EDGE_LOOP ( 'NONE', ( #23 ) ) ;
#212 = EDGE_LOOP ( 'NONE', ( #15 ) ) ;
#213 = SHAPE_DEFINITION_REPRESENTATION ( #28, #354 ) ;
#214 = EDGE_LOOP ( 'NONE', ( #3 ) ) ;
#215 = APPROVAL_PERSON_ORGANIZATION ( #217, #322, #101 ) ;
#216 = EDGE_LOOP ( 'NONE', ( #17 ) ) ;
#217 = PERSON_AND_ORGANIZATION ( #355, #202 ) ;
#218 = EDGE_LOOP ( 'NONE', ( #7 ) ) ;
#219 = PERSON_AND_ORGANIZATION ( #355, #202 ) ;
#220 = EDGE_LOOP ( 'NONE', ( #6 ) ) ;
#221 = LOCAL_TIME ( 15, 26, 8.000000000000000000, #223 ) ;
#222 = EDGE_LOOP ( 'NONE', ( #9 ) ) ;
#223 = COORDINATED_UNIVERSAL_TIME_OFFSET ( 8, 0, .AHEAD. ) ;
#224 = EDGE_LOOP ( 'NONE', ( #5 ) ) ;
#225 = APPROVAL_DATE_TIME ( #227, #322 ) ;
#226 = ORIENTED_EDGE ( 'NONE', *, *, #303, .T. ) ;
#227 = DATE_AND_TIME ( #229, #221 ) ;
#228 = EDGE_LOOP ( 'NONE', ( #230 ) ) ;
#229 = CALENDAR_DATE ( 2017, 11, 1 ) ;
#230 = ORIENTED_EDGE ( 'NONE', *, *, #296, .T. ) ;
#231 = PERSON_AND_ORGANIZATION ( #355, #202 ) ;
#232 = ORIENTED_EDGE ( 'NONE', *, *, #292, .F. ) ;
#233 = COORDINATED_UNIVERSAL_TIME_OFFSET ( 8, 0, .AHEAD. ) ;
#234 = FACE_OUTER_BOUND ( 'NONE', #132, .T. ) ;
#235 = LOCAL_TIME ( 15, 26, 8.000000000000000000, #233 ) ;
#236 = CIRCLE ( 'NONE', #346, 6.499999999999999100 ) ;
#237 = CALENDAR_DATE ( 2017, 11, 1 ) ;
#238 = FACE_BOUND ( 'NONE', #200, .T. ) ;
#239 = DATE_AND_TIME ( #237, #235 ) ;
#240 = CIRCLE ( 'NONE', #352, 5.249999999999999100 ) ;
#241 = PERSON_AND_ORGANIZATION ( #355, #202 ) ;
#242 = CIRCLE ( 'NONE', #344, 3.299999999999999800 ) ;
#243 = APPROVAL_PERSON_ORGANIZATION ( #241, #315, #105 ) ;
#244 = CIRCLE ( 'NONE', #347, 9.500000000000076400 ) ;
#245 = COORDINATED_UNIVERSAL_TIME_OFFSET ( 8, 0, .AHEAD. ) ;
#246 = CIRCLE ( 'NONE', #318, 11.70000000000005400 ) ;
#247 = CIRCLE ( 'NONE', #350, 12.69999999999999900 ) ;
#248 = LOCAL_TIME ( 15, 26, 8.000000000000000000, #245 ) ;
#249 = CALENDAR_DATE ( 2017, 11, 1 ) ;
#250 = DATE_AND_TIME ( #249, #248 ) ;
#251 = CIRCLE ( 'NONE', #348, 9.500000000000076400 ) ;
#252 = CIRCLE ( 'NONE', #339, 15.99999999999999600 ) ;
#253 = CIRCLE ( 'NONE', #327, 5.249999999999999100 ) ;
#254 = APPROVAL_DATE_TIME ( #250, #315 ) ;
#255 = PERSON_AND_ORGANIZATION ( #355, #202 ) ;
#256 = PERSON_AND_ORGANIZATION ( #355, #202 ) ;
#257 = PERSON_AND_ORGANIZATION ( #355, #202 ) ;
#258 = COORDINATED_UNIVERSAL_TIME_OFFSET ( 8, 0, .AHEAD. ) ;
#259 = CARTESIAN_POINT ( 'NONE',  ( -5.537048590113303100E-031, -7.399999999999984400, 0.0000000000000000000 ) ) ;
#260 = DIRECTION ( 'NONE',  ( -1.000000000000000000, -3.285461128743953100E-017, 0.0000000000000000000 ) ) ;
#261 = DIRECTION ( 'NONE',  ( -3.414809992080329000E-017, 1.000000000000000000, 0.0000000000000000000 ) ) ;
#262 = DIRECTION ( 'NONE',  ( -3.414809992080329000E-017, 1.000000000000000000, 0.0000000000000000000 ) ) ;
#263 = CARTESIAN_POINT ( 'NONE',  ( -2.287922694693797100E-016, -0.7000000000000703400, 0.0000000000000000000 ) ) ;
#264 = CARTESIAN_POINT ( 'NONE',  ( -2.629403693901859400E-016, 0.3000000000000155300, 0.0000000000000000000 ) ) ;
#265 = DIRECTION ( 'NONE',  ( -1.000000000000000000, 0.0000000000000000000, 0.0000000000000000000 ) ) ;
#266 = DIRECTION ( 'NONE',  ( -3.414809992080329000E-017, 1.000000000000000000, 0.0000000000000000000 ) ) ;
#267 = CARTESIAN_POINT ( 'NONE',  ( -2.629403693901859400E-016, 0.3000000000000155300, 0.0000000000000000000 ) ) ;
#268 = DIRECTION ( 'NONE',  ( -1.000000000000000000, -3.243339832221579500E-017, 0.0000000000000000000 ) ) ;
#269 = DIRECTION ( 'NONE',  ( -1.000000000000000000, 0.0000000000000000000, 0.0000000000000000000 ) ) ;
#270 = DIRECTION ( 'NONE',  ( -1.000000000000000000, 0.0000000000000000000, 0.0000000000000000000 ) ) ;
#271 = CARTESIAN_POINT ( 'NONE',  ( 1.707404996040190100E-016, -12.40000000000007700, 0.0000000000000000000 ) ) ;
#272 = DIRECTION ( 'NONE',  ( -3.414809992080329000E-017, 1.000000000000000000, 0.0000000000000000000 ) ) ;
#273 = DIRECTION ( 'NONE',  ( -3.414809992080329000E-017, 1.000000000000000000, 0.0000000000000000000 ) ) ;
#274 = DIRECTION ( 'NONE',  ( -1.000000000000000000, -3.336006684570783300E-017, 0.0000000000000000000 ) ) ;
#275 = DIRECTION ( 'NONE',  ( -3.414809992080329000E-017, 1.000000000000000000, 0.0000000000000000000 ) ) ;
#276 = CARTESIAN_POINT ( 'NONE',  ( -5.537048590113303100E-031, -7.399999999999984400, 0.0000000000000000000 ) ) ;
#277 = DIRECTION ( 'NONE',  ( -1.000000000000000000, 0.0000000000000000000, 0.0000000000000000000 ) ) ;
#278 = CARTESIAN_POINT ( 'NONE',  ( -6.829619984160716000E-017, -5.399999999999983500, 0.0000000000000000000 ) ) ;
#279 = DIRECTION ( 'NONE',  ( -3.414809992080329000E-017, 1.000000000000000000, 0.0000000000000000000 ) ) ;
#280 = CARTESIAN_POINT ( 'NONE',  ( 1.365923996832131600E-016, -11.40000000000000000, 0.0000000000000000000 ) ) ;
#281 = CARTESIAN_POINT ( 'NONE',  ( -6.829619984160716000E-017, -5.399999999999983500, 0.0000000000000000000 ) ) ;
#282 = DIRECTION ( 'NONE',  ( -3.414809992080329000E-017, 1.000000000000000000, 0.0000000000000000000 ) ) ;
#283 = DIRECTION ( 'NONE',  ( -3.414809992080329000E-017, 1.000000000000000000, 0.0000000000000000000 ) ) ;
#284 = CARTESIAN_POINT ( 'NONE',  ( 1.365923996832109700E-016, -11.39999999999993600, 0.0000000000000000000 ) ) ;
#285 = DIRECTION ( 'NONE',  ( -1.000000000000000000, 0.0000000000000000000, 0.0000000000000000000 ) ) ;
#286 = CARTESIAN_POINT ( 'NONE',  ( -2.287922694693797100E-016, -0.7000000000000703400, 0.0000000000000000000 ) ) ;
#287 = DIRECTION ( 'NONE',  ( -3.414809992080329000E-017, 1.000000000000000000, 0.0000000000000000000 ) ) ;
#288 = DIRECTION ( 'NONE',  ( -1.000000000000000000, 0.0000000000000000000, 0.0000000000000000000 ) ) ;
#289 = DIRECTION ( 'NONE',  ( -1.000000000000000000, -5.421010862427523400E-017, 0.0000000000000000000 ) ) ;
#290 = MANIFOLD_SOLID_BREP ( '±ÛÂà1', #1 ) ;
#291 = DIRECTION ( 'NONE',  ( -1.000000000000000000, 0.0000000000000000000, 0.0000000000000000000 ) ) ;
#292 = EDGE_CURVE ( 'NONE', #164, #164, #236, .T. ) ;
#293 = EDGE_CURVE ( 'NONE', #157, #157, #240, .T. ) ;
#294 = EDGE_CURVE ( 'NONE', #156, #156, #242, .T. ) ;
#295 = EDGE_CURVE ( 'NONE', #155, #155, #244, .T. ) ;
#296 = EDGE_CURVE ( 'NONE', #153, #153, #246, .T. ) ;
#297 = EDGE_CURVE ( 'NONE', #154, #154, #247, .T. ) ;
#298 = EDGE_CURVE ( 'NONE', #148, #148, #251, .T. ) ;
#299 = EDGE_CURVE ( 'NONE', #136, #136, #252, .T. ) ;
#300 = EDGE_CURVE ( 'NONE', #138, #138, #253, .T. ) ;
#301 = EDGE_CURVE ( 'NONE', #140, #140, #152, .T. ) ;
#302 = EDGE_CURVE ( 'NONE', #130, #130, #150, .T. ) ;
#303 = EDGE_CURVE ( 'NONE', #128, #128, #151, .T. ) ;
#304 = EDGE_CURVE ( 'NONE', #133, #133, #205, .T. ) ;
#305 = PRODUCT_RELATED_PRODUCT_CATEGORY ( 'detail', '', ( #29 ) ) ;
#306 = CC_DESIGN_SECURITY_CLASSIFICATION ( #311, ( #316 ) ) ;
#307 = CC_DESIGN_APPROVAL ( #308, ( #311 ) ) ;
#308 = APPROVAL ( #111, 'UNSPECIFIED' ) ;
#309 = CC_DESIGN_DATE_AND_TIME_ASSIGNMENT ( #142, #110, ( #311 ) ) ;
#310 = CC_DESIGN_PERSON_AND_ORGANIZATION_ASSIGNMENT ( #257, #109, ( #311 ) ) ;
#311 = SECURITY_CLASSIFICATION ( '', '', #108 ) ;
#312 = CC_DESIGN_PERSON_AND_ORGANIZATION_ASSIGNMENT ( #256, #107, ( #316 ) ) ;
#313 = CC_DESIGN_PERSON_AND_ORGANIZATION_ASSIGNMENT ( #255, #106, ( #316 ) ) ;
#314 = CC_DESIGN_APPROVAL ( #315, ( #316 ) ) ;
#315 = APPROVAL ( #104, 'UNSPECIFIED' ) ;
#316 = PRODUCT_DEFINITION_FORMATION_WITH_SPECIFIED_SOURCE ( 'ANY', '', #29, .NOT_KNOWN. ) ;
#317 = CC_DESIGN_DATE_AND_TIME_ASSIGNMENT ( #239, #103, ( #323 ) ) ;
#318 = AXIS2_PLACEMENT_3D ( 'NONE', #267, #282, #268 ) ;
#319 = CC_DESIGN_PERSON_AND_ORGANIZATION_ASSIGNMENT ( #231, #102, ( #323 ) ) ;
#320 = AXIS2_PLACEMENT_3D ( 'NONE', #117, #124, #126 ) ;
#321 = CC_DESIGN_APPROVAL ( #322, ( #323 ) ) ;
#322 = APPROVAL ( #100, 'UNSPECIFIED' ) ;
#323 = PRODUCT_DEFINITION ( 'UNKNOWN', '', #316, #27 ) ;
#324 = CC_DESIGN_PERSON_AND_ORGANIZATION_ASSIGNMENT ( #219, #97, ( #29 ) ) ;
#325 = AXIS2_PLACEMENT_3D ( 'NONE', #88, #94, #95 ) ;
#326 = AXIS2_PLACEMENT_3D ( 'NONE', #72, #73, #71 ) ;
#327 = AXIS2_PLACEMENT_3D ( 'NONE', #278, #275, #270 ) ;
#328 = AXIS2_PLACEMENT_3D ( 'NONE', #70, #65, #67 ) ;
#329 = AXIS2_PLACEMENT_3D ( 'NONE', #64, #68, #69 ) ;
#330 = AXIS2_PLACEMENT_3D ( 'NONE', #63, #58, #60 ) ;
#331 = EDGE_CURVE ( 'NONE', #134, #134, #141, .T. ) ;
#332 = AXIS2_PLACEMENT_3D ( 'NONE', #57, #61, #62 ) ;
#333 =( GEOMETRIC_REPRESENTATION_CONTEXT ( 3 ) GLOBAL_UNCERTAINTY_ASSIGNED_CONTEXT ( ( #127 ) ) GLOBAL_UNIT_ASSIGNED_CONTEXT ( ( #89, #90, #91 ) ) REPRESENTATION_CONTEXT ( 'NONE', 'WORKASPACE' ) );
#334 = AXIS2_PLACEMENT_3D ( 'NONE', #119, #118, #116 ) ;
#335 = AXIS2_PLACEMENT_3D ( 'NONE', #53, #49, #50 ) ;
#336 = AXIS2_PLACEMENT_3D ( 'NONE', #55, #56, #54 ) ;
#337 = AXIS2_PLACEMENT_3D ( 'NONE', #46, #51, #52 ) ;
#338 = AXIS2_PLACEMENT_3D ( 'NONE', #42, #47, #48 ) ;
#339 = AXIS2_PLACEMENT_3D ( 'NONE', #259, #287, #289 ) ;
#340 = AXIS2_PLACEMENT_3D ( 'NONE', #39, #43, #44 ) ;
#341 = AXIS2_PLACEMENT_3D ( 'NONE', #38, #32, #34 ) ;
#342 = AXIS2_PLACEMENT_3D ( 'NONE', #35, #36, #37 ) ;
#343 = AXIS2_PLACEMENT_3D ( 'NONE', #121, #123, #125 ) ;
#344 = AXIS2_PLACEMENT_3D ( 'NONE', #281, #272, #265 ) ;
#345 = AXIS2_PLACEMENT_3D ( 'NONE', #264, #30, #31 ) ;
#346 = AXIS2_PLACEMENT_3D ( 'NONE', #286, #279, #274 ) ;
#347 = AXIS2_PLACEMENT_3D ( 'NONE', #280, #261, #269 ) ;
#348 = AXIS2_PLACEMENT_3D ( 'NONE', #271, #273, #285 ) ;
#349 = AXIS2_PLACEMENT_3D ( 'NONE', #263, #262, #260 ) ;
#350 = AXIS2_PLACEMENT_3D ( 'NONE', #276, #266, #288 ) ;
#351 = AXIS2_PLACEMENT_3D ( 'NONE', #122, #115, #120 ) ;
#352 = AXIS2_PLACEMENT_3D ( 'NONE', #284, #283, #277 ) ;
#353 = AXIS2_PLACEMENT_3D ( 'NONE', #113, #114, #291 ) ;
#354 = ADVANCED_BREP_SHAPE_REPRESENTATION ( 'PR-B', ( #290, #325 ), #333 ) ;
#355 = PERSON ( 'UNSPECIFIED', 'UNSPECIFIED', 'UNSPECIFIED', ('UNSPECIFIED'), ('UNSPECIFIED'), ('UNSPECIFIED') ) ;
#356 = ADVANCED_FACE ( 'NONE', ( #14, #143 ), #147, .T. ) ;
#357 = ADVANCED_FACE ( 'NONE', ( #208, #145 ), #183, .T. ) ;
#358 = ADVANCED_FACE ( 'NONE', ( #207, #238 ), #33, .T. ) ;
#359 = ADVANCED_FACE ( 'NONE', ( #234, #182 ), #180, .F. ) ;
#360 = ADVANCED_FACE ( 'NONE', ( #187, #179 ), #41, .T. ) ;
#361 = ADVANCED_FACE ( 'NONE', ( #189, #177 ), #40, .T. ) ;
#362 = ADVANCED_FACE ( 'NONE', ( #178, #175 ), #45, .T. ) ;
#363 = ADVANCED_FACE ( 'NONE', ( #176, #173 ), #171, .T. ) ;
#364 = ADVANCED_FACE ( 'NONE', ( #185, #170 ), #166, .T. ) ;
#365 = ADVANCED_FACE ( 'NONE', ( #172, #181 ), #59, .T. ) ;
#366 = ADVANCED_FACE ( 'NONE', ( #174, #165 ), #163, .F. ) ;
#367 = ADVANCED_FACE ( 'NONE', ( #168, #162 ), #66, .T. ) ;
#368 = ADVANCED_FACE ( 'NONE', ( #169, #161 ), #160, .F. ) ;
#369 = ADVANCED_FACE ( 'NONE', ( #167, #159 ), #158, .F. ) ;
ENDSEC;
END-ISO-10303-21;
