ISO-10303-21;
HEADER;
FILE_DESCRIPTION (( 'STEP AP214' ),
    '1' );
FILE_NAME ('190120.STEP',
    '2019-07-17T03:19:40',
    ( 'user' ),
    ( 'Î¢ÈíÖÐ¹ú' ),
    'SwSTEP 2.0',
    'SolidWorks 2016',
    '' );
FILE_SCHEMA (( 'AUTOMOTIVE_DESIGN' ));
ENDSEC;

DATA;
#1 = DIRECTION ( 'NONE',  ( -0.0000000000000000000, -0.0000000000000000000, -1.000000000000000000 ) ) ;
#2 = DIRECTION ( 'NONE',  ( -0.0000000000000000000, -0.0000000000000000000, -1.000000000000000000 ) ) ;
#3 = UNCERTAINTY_MEASURE_WITH_UNIT (LENGTH_MEASURE( 1.000000000000000100E-005 ), #35, 'distance_accuracy_value', 'NONE');
#4 = EDGE_LOOP ( 'NONE', ( #20, #38, #32, #58 ) ) ;
#5 = LINE ( 'NONE', #116, #102 ) ;
#6 = DIRECTION ( 'NONE',  ( 0.0000000000000000000, 0.0000000000000000000, 1.000000000000000000 ) ) ;
#7 = SURFACE_SIDE_STYLE ('',( #94 ) ) ;
#8 = CLOSED_SHELL ( 'NONE', ( #80, #16, #120, #19 ) ) ;
#9 = DIRECTION ( 'NONE',  ( 1.000000000000000000, 0.0000000000000000000, -0.0000000000000000000 ) ) ;
#10 = PRESENTATION_STYLE_ASSIGNMENT (( #62 ) ) ;
#11 = PRESENTATION_LAYER_ASSIGNMENT (  '', '', ( #112 ) ) ;
#12 = CIRCLE ( 'NONE', #48, 3.150000000000000400 ) ;
#13 = AXIS2_PLACEMENT_3D ( 'NONE', #76, #54, #91 ) ;
#14 = EDGE_CURVE ( 'NONE', #50, #70, #27, .T. ) ;
#15 = CARTESIAN_POINT ( 'NONE',  ( 0.0000000000000000000, 0.0000000000000000000, 0.0000000000000000000 ) ) ;
#16 = ADVANCED_FACE ( 'NONE', ( #65 ), #135, .T. ) ;
#17 = ORIENTED_EDGE ( 'NONE', *, *, #14, .F. ) ;
#18 = CARTESIAN_POINT ( 'NONE',  ( 0.0000000000000000000, 0.0000000000000000000, 1.000000000000000000 ) ) ;
#19 = ADVANCED_FACE ( 'NONE', ( #57 ), #97, .F. ) ;
#20 = ORIENTED_EDGE ( 'NONE', *, *, #42, .F. ) ;
#21 = APPLICATION_CONTEXT ( 'automotive_design' ) ;
#22 = MANIFOLD_SOLID_BREP ( 'Í¹Ì¨-À­Éì1', #8 ) ;
#23 = PRODUCT_DEFINITION ( 'Î´Öª', '', #36, #74 ) ;
#24 = UNCERTAINTY_MEASURE_WITH_UNIT (LENGTH_MEASURE( 1.000000000000000100E-005 ), #60, 'distance_accuracy_value', 'NONE');
#25 = MECHANICAL_DESIGN_GEOMETRIC_PRESENTATION_REPRESENTATION (  '', ( #112 ), #26 ) ;
#26 =( GEOMETRIC_REPRESENTATION_CONTEXT ( 3 ) GLOBAL_UNCERTAINTY_ASSIGNED_CONTEXT ( ( #3 ) ) GLOBAL_UNIT_ASSIGNED_CONTEXT ( ( #35, #29, #113 ) ) REPRESENTATION_CONTEXT ( 'NONE', 'WORKASPACE' ) );
#27 = CIRCLE ( 'NONE', #127, 3.150000000000000400 ) ;
#28 = DIRECTION ( 'NONE',  ( 1.000000000000000000, 0.0000000000000000000, -0.0000000000000000000 ) ) ;
#29 =( NAMED_UNIT ( * ) PLANE_ANGLE_UNIT ( ) SI_UNIT ( $, .RADIAN. ) );
#30 = CARTESIAN_POINT ( 'NONE',  ( 3.150000000000000400, 3.857637417314163200E-016, 0.0000000000000000000 ) ) ;
#31 = DIRECTION ( 'NONE',  ( 1.000000000000000000, 0.0000000000000000000, 0.0000000000000000000 ) ) ;
#32 = ORIENTED_EDGE ( 'NONE', *, *, #138, .T. ) ;
#33 = EDGE_CURVE ( 'NONE', #70, #50, #12, .T. ) ;
#34 = FILL_AREA_STYLE ('',( #100 ) ) ;
#35 =( LENGTH_UNIT ( ) NAMED_UNIT ( * ) SI_UNIT ( .MILLI., .METRE. ) );
#36 = PRODUCT_DEFINITION_FORMATION_WITH_SPECIFIED_SOURCE ( 'ÈÎºÎ', '', #139, .NOT_KNOWN. ) ;
#37 = FACE_OUTER_BOUND ( 'NONE', #78, .T. ) ;
#38 = ORIENTED_EDGE ( 'NONE', *, *, #72, .F. ) ;
#39 = APPLICATION_PROTOCOL_DEFINITION ( 'draft international standard', 'automotive_design', 1998, #55 ) ;
#40 =( NAMED_UNIT ( * ) PLANE_ANGLE_UNIT ( ) SI_UNIT ( $, .RADIAN. ) );
#41 = DIRECTION ( 'NONE',  ( -0.0000000000000000000, -0.0000000000000000000, -1.000000000000000000 ) ) ;
#42 = EDGE_CURVE ( 'NONE', #104, #50, #130, .T. ) ;
#43 = PRODUCT_RELATED_PRODUCT_CATEGORY ( 'part', '', ( #139 ) ) ;
#44 = ORIENTED_EDGE ( 'NONE', *, *, #138, .F. ) ;
#45 = DIRECTION ( 'NONE',  ( -1.000000000000000000, 0.0000000000000000000, 0.0000000000000000000 ) ) ;
#46 = CYLINDRICAL_SURFACE ( 'NONE', #86, 3.150000000000000400 ) ;
#47 = UNCERTAINTY_MEASURE_WITH_UNIT (LENGTH_MEASURE( 1.000000000000000100E-005 ), #108, 'distance_accuracy_value', 'NONE');
#48 = AXIS2_PLACEMENT_3D ( 'NONE', #51, #6, #126 ) ;
#49 = EDGE_CURVE ( 'NONE', #104, #83, #77, .T. ) ;
#50 = VERTEX_POINT ( 'NONE', #30 ) ;
#51 = CARTESIAN_POINT ( 'NONE',  ( 0.0000000000000000000, 0.0000000000000000000, 0.0000000000000000000 ) ) ;
#52 = DIRECTION ( 'NONE',  ( 0.0000000000000000000, 0.0000000000000000000, 1.000000000000000000 ) ) ;
#53 = DIRECTION ( 'NONE',  ( 0.0000000000000000000, 0.0000000000000000000, 1.000000000000000000 ) ) ;
#54 = DIRECTION ( 'NONE',  ( 0.0000000000000000000, 0.0000000000000000000, 1.000000000000000000 ) ) ;
#55 = APPLICATION_CONTEXT ( 'automotive_design' ) ;
#56 = CARTESIAN_POINT ( 'NONE',  ( -3.150000000000000400, 0.0000000000000000000, 0.0000000000000000000 ) ) ;
#57 = FACE_OUTER_BOUND ( 'NONE', #115, .T. ) ;
#58 = ORIENTED_EDGE ( 'NONE', *, *, #33, .T. ) ;
#59 = CARTESIAN_POINT ( 'NONE',  ( 0.0000000000000000000, 0.0000000000000000000, 1.000000000000000000 ) ) ;
#60 =( LENGTH_UNIT ( ) NAMED_UNIT ( * ) SI_UNIT ( .MILLI., .METRE. ) );
#61 = CARTESIAN_POINT ( 'NONE',  ( 0.0000000000000000000, 0.0000000000000000000, 1.000000000000000000 ) ) ;
#62 = SURFACE_STYLE_USAGE ( .BOTH. , #63 ) ;
#63 = SURFACE_SIDE_STYLE ('',( #85 ) ) ;
#64 = AXIS2_PLACEMENT_3D ( 'NONE', #59, #107, #87 ) ;
#65 = FACE_OUTER_BOUND ( 'NONE', #4, .T. ) ;
#66 = COLOUR_RGB ( '',1.000000000000000000, 1.000000000000000000, 1.000000000000000000 ) ;
#67 = AXIS2_PLACEMENT_3D ( 'NONE', #88, #53, #131 ) ;
#68 = SHAPE_DEFINITION_REPRESENTATION ( #81, #110 ) ;
#69 = DIRECTION ( 'NONE',  ( 0.0000000000000000000, 0.0000000000000000000, 1.000000000000000000 ) ) ;
#70 = VERTEX_POINT ( 'NONE', #56 ) ;
#71 = ORIENTED_EDGE ( 'NONE', *, *, #33, .F. ) ;
#72 = EDGE_CURVE ( 'NONE', #83, #104, #111, .T. ) ;
#73 =( GEOMETRIC_REPRESENTATION_CONTEXT ( 3 ) GLOBAL_UNCERTAINTY_ASSIGNED_CONTEXT ( ( #24 ) ) GLOBAL_UNIT_ASSIGNED_CONTEXT ( ( #60, #40, #98 ) ) REPRESENTATION_CONTEXT ( 'NONE', 'WORKASPACE' ) );
#74 = PRODUCT_DEFINITION_CONTEXT ( 'detailed design', #55, 'design' ) ;
#75 = CARTESIAN_POINT ( 'NONE',  ( 3.150000000000000400, 3.857637417314163200E-016, 1.000000000000000000 ) ) ;
#76 = CARTESIAN_POINT ( 'NONE',  ( 0.0000000000000000000, 0.0000000000000000000, 0.0000000000000000000 ) ) ;
#77 = CIRCLE ( 'NONE', #64, 3.150000000000000400 ) ;
#78 = EDGE_LOOP ( 'NONE', ( #140, #90, #109, #44 ) ) ;
#79 = DIRECTION ( 'NONE',  ( -0.0000000000000000000, -0.0000000000000000000, -1.000000000000000000 ) ) ;
#80 = ADVANCED_FACE ( 'NONE', ( #37 ), #46, .T. ) ;
#81 = PRODUCT_DEFINITION_SHAPE ( 'NONE', 'NONE',  #23 ) ;
#82 = CARTESIAN_POINT ( 'NONE',  ( 0.0000000000000000000, 0.0000000000000000000, 1.000000000000000000 ) ) ;
#83 = VERTEX_POINT ( 'NONE', #89 ) ;
#84 = PLANE ( 'NONE',  #93 ) ;
#85 = SURFACE_STYLE_FILL_AREA ( #129 ) ;
#86 = AXIS2_PLACEMENT_3D ( 'NONE', #61, #1, #45 ) ;
#87 = DIRECTION ( 'NONE',  ( 1.000000000000000000, 0.0000000000000000000, 0.0000000000000000000 ) ) ;
#88 = CARTESIAN_POINT ( 'NONE',  ( 0.0000000000000000000, 0.0000000000000000000, 1.000000000000000000 ) ) ;
#89 = CARTESIAN_POINT ( 'NONE',  ( -3.150000000000000400, 0.0000000000000000000, 1.000000000000000000 ) ) ;
#90 = ORIENTED_EDGE ( 'NONE', *, *, #42, .T. ) ;
#91 = DIRECTION ( 'NONE',  ( 1.000000000000000000, 0.0000000000000000000, 0.0000000000000000000 ) ) ;
#92 = ORIENTED_EDGE ( 'NONE', *, *, #49, .T. ) ;
#93 = AXIS2_PLACEMENT_3D ( 'NONE', #18, #69, #28 ) ;
#94 = SURFACE_STYLE_FILL_AREA ( #34 ) ;
#95 = EDGE_LOOP ( 'NONE', ( #137, #92 ) ) ;
#96 = FACE_OUTER_BOUND ( 'NONE', #95, .T. ) ;
#97 = PLANE ( 'NONE',  #134 ) ;
#98 =( NAMED_UNIT ( * ) SI_UNIT ( $, .STERADIAN. ) SOLID_ANGLE_UNIT ( ) );
#99 = DIRECTION ( 'NONE',  ( -1.000000000000000000, 0.0000000000000000000, 0.0000000000000000000 ) ) ;
#100 = FILL_AREA_STYLE_COLOUR ( '', #66 ) ;
#101 = SURFACE_STYLE_USAGE ( .BOTH. , #7 ) ;
#102 = VECTOR ( 'NONE', #2, 1000.000000000000000 ) ;
#103 = STYLED_ITEM ( 'NONE', ( #123 ), #110 ) ;
#104 = VERTEX_POINT ( 'NONE', #75 ) ;
#105 = DIRECTION ( 'NONE',  ( 0.0000000000000000000, 0.0000000000000000000, 1.000000000000000000 ) ) ;
#106 = PRODUCT_CONTEXT ( 'NONE', #21, 'mechanical' ) ;
#107 = DIRECTION ( 'NONE',  ( 0.0000000000000000000, 0.0000000000000000000, 1.000000000000000000 ) ) ;
#108 =( LENGTH_UNIT ( ) NAMED_UNIT ( * ) SI_UNIT ( .MILLI., .METRE. ) );
#109 = ORIENTED_EDGE ( 'NONE', *, *, #14, .T. ) ;
#110 = ADVANCED_BREP_SHAPE_REPRESENTATION ( '190120', ( #22, #13 ), #73 ) ;
#111 = CIRCLE ( 'NONE', #67, 3.150000000000000400 ) ;
#112 = STYLED_ITEM ( 'NONE', ( #10 ), #22 ) ;
#113 =( NAMED_UNIT ( * ) SI_UNIT ( $, .STERADIAN. ) SOLID_ANGLE_UNIT ( ) );
#114 = PRESENTATION_LAYER_ASSIGNMENT (  '', '', ( #103 ) ) ;
#115 = EDGE_LOOP ( 'NONE', ( #71, #17 ) ) ;
#116 = CARTESIAN_POINT ( 'NONE',  ( -3.150000000000000400, 0.0000000000000000000, 1.000000000000000000 ) ) ;
#117 = CARTESIAN_POINT ( 'NONE',  ( 0.0000000000000000000, 0.0000000000000000000, 0.0000000000000000000 ) ) ;
#118 = AXIS2_PLACEMENT_3D ( 'NONE', #82, #41, #99 ) ;
#119 = FILL_AREA_STYLE_COLOUR ( '', #133 ) ;
#120 = ADVANCED_FACE ( 'NONE', ( #96 ), #84, .T. ) ;
#121 =( NAMED_UNIT ( * ) PLANE_ANGLE_UNIT ( ) SI_UNIT ( $, .RADIAN. ) );
#122 = MECHANICAL_DESIGN_GEOMETRIC_PRESENTATION_REPRESENTATION (  '', ( #103 ), #125 ) ;
#123 = PRESENTATION_STYLE_ASSIGNMENT (( #101 ) ) ;
#124 = VECTOR ( 'NONE', #79, 1000.000000000000000 ) ;
#125 =( GEOMETRIC_REPRESENTATION_CONTEXT ( 3 ) GLOBAL_UNCERTAINTY_ASSIGNED_CONTEXT ( ( #47 ) ) GLOBAL_UNIT_ASSIGNED_CONTEXT ( ( #108, #121, #136 ) ) REPRESENTATION_CONTEXT ( 'NONE', 'WORKASPACE' ) );
#126 = DIRECTION ( 'NONE',  ( 1.000000000000000000, 0.0000000000000000000, 0.0000000000000000000 ) ) ;
#127 = AXIS2_PLACEMENT_3D ( 'NONE', #117, #52, #31 ) ;
#128 = CARTESIAN_POINT ( 'NONE',  ( 3.150000000000000400, 3.857637417314163200E-016, 1.000000000000000000 ) ) ;
#129 = FILL_AREA_STYLE ('',( #119 ) ) ;
#130 = LINE ( 'NONE', #128, #124 ) ;
#131 = DIRECTION ( 'NONE',  ( 1.000000000000000000, 0.0000000000000000000, 0.0000000000000000000 ) ) ;
#132 = APPLICATION_PROTOCOL_DEFINITION ( 'draft international standard', 'automotive_design', 1998, #21 ) ;
#133 = COLOUR_RGB ( '',1.000000000000000000, 1.000000000000000000, 1.000000000000000000 ) ;
#134 = AXIS2_PLACEMENT_3D ( 'NONE', #15, #105, #9 ) ;
#135 = CYLINDRICAL_SURFACE ( 'NONE', #118, 3.150000000000000400 ) ;
#136 =( NAMED_UNIT ( * ) SI_UNIT ( $, .STERADIAN. ) SOLID_ANGLE_UNIT ( ) );
#137 = ORIENTED_EDGE ( 'NONE', *, *, #72, .T. ) ;
#138 = EDGE_CURVE ( 'NONE', #83, #70, #5, .T. ) ;
#139 = PRODUCT ( '190120', '190120', '', ( #106 ) ) ;
#140 = ORIENTED_EDGE ( 'NONE', *, *, #49, .F. ) ;
ENDSEC;
END-ISO-10303-21;
