ISO-10303-21;
HEADER;
FILE_DESCRIPTION (( 'STEP AP214' ),
    '1' );
FILE_NAME ('190112.STEP',
    '2019-07-17T02:00:58',
    ( 'user' ),
    ( 'Î¢ÈíÖÐ¹ú' ),
    'SwSTEP 2.0',
    'SolidWorks 2016',
    '' );
FILE_SCHEMA (( 'AUTOMOTIVE_DESIGN' ));
ENDSEC;

DATA;
#1 = AXIS2_PLACEMENT_3D ( 'NONE', #62, #15, #80 ) ;
#2 = COLOUR_RGB ( '',1.000000000000000000, 1.000000000000000000, 1.000000000000000000 ) ;
#3 = CARTESIAN_POINT ( 'NONE',  ( 3.150000000000000400, 3.857637417314163200E-016, 0.0000000000000000000 ) ) ;
#4 = CARTESIAN_POINT ( 'NONE',  ( 3.150000000000000400, 3.857637417314163200E-016, 0.5000000000000000000 ) ) ;
#5 =( GEOMETRIC_REPRESENTATION_CONTEXT ( 3 ) GLOBAL_UNCERTAINTY_ASSIGNED_CONTEXT ( ( #13 ) ) GLOBAL_UNIT_ASSIGNED_CONTEXT ( ( #103, #20, #115 ) ) REPRESENTATION_CONTEXT ( 'NONE', 'WORKASPACE' ) );
#6 = CIRCLE ( 'NONE', #71, 3.150000000000000400 ) ;
#7 = SURFACE_STYLE_FILL_AREA ( #126 ) ;
#8 = ORIENTED_EDGE ( 'NONE', *, *, #118, .T. ) ;
#9 = ADVANCED_FACE ( 'NONE', ( #132 ), #46, .T. ) ;
#10 = AXIS2_PLACEMENT_3D ( 'NONE', #48, #27, #120 ) ;
#11 = EDGE_LOOP ( 'NONE', ( #108, #127 ) ) ;
#12 = DIRECTION ( 'NONE',  ( 0.0000000000000000000, 0.0000000000000000000, 1.000000000000000000 ) ) ;
#13 = UNCERTAINTY_MEASURE_WITH_UNIT (LENGTH_MEASURE( 1.000000000000000100E-005 ), #103, 'distance_accuracy_value', 'NONE');
#14 = FILL_AREA_STYLE ('',( #88 ) ) ;
#15 = DIRECTION ( 'NONE',  ( 0.0000000000000000000, 0.0000000000000000000, 1.000000000000000000 ) ) ;
#16 = STYLED_ITEM ( 'NONE', ( #17 ), #74 ) ;
#17 = PRESENTATION_STYLE_ASSIGNMENT (( #28 ) ) ;
#18 = LINE ( 'NONE', #122, #52 ) ;
#19 = PRODUCT_DEFINITION_CONTEXT ( 'detailed design', #68, 'design' ) ;
#20 =( NAMED_UNIT ( * ) PLANE_ANGLE_UNIT ( ) SI_UNIT ( $, .RADIAN. ) );
#21 = EDGE_LOOP ( 'NONE', ( #119, #33 ) ) ;
#22 =( NAMED_UNIT ( * ) PLANE_ANGLE_UNIT ( ) SI_UNIT ( $, .RADIAN. ) );
#23 = DIRECTION ( 'NONE',  ( 0.0000000000000000000, 0.0000000000000000000, 1.000000000000000000 ) ) ;
#24 = SURFACE_STYLE_FILL_AREA ( #14 ) ;
#25 = AXIS2_PLACEMENT_3D ( 'NONE', #95, #39, #131 ) ;
#26 = ORIENTED_EDGE ( 'NONE', *, *, #110, .T. ) ;
#27 = DIRECTION ( 'NONE',  ( -0.0000000000000000000, -0.0000000000000000000, -1.000000000000000000 ) ) ;
#28 = SURFACE_STYLE_USAGE ( .BOTH. , #72 ) ;
#29 = AXIS2_PLACEMENT_3D ( 'NONE', #44, #12, #77 ) ;
#30 = VERTEX_POINT ( 'NONE', #3 ) ;
#31 = MECHANICAL_DESIGN_GEOMETRIC_PRESENTATION_REPRESENTATION (  '', ( #16 ), #40 ) ;
#32 = EDGE_CURVE ( 'NONE', #86, #90, #100, .T. ) ;
#33 = ORIENTED_EDGE ( 'NONE', *, *, #124, .T. ) ;
#34 = DIRECTION ( 'NONE',  ( 0.0000000000000000000, 0.0000000000000000000, 1.000000000000000000 ) ) ;
#35 = PRODUCT_DEFINITION ( 'Î´Öª', '', #42, #19 ) ;
#36 = FACE_OUTER_BOUND ( 'NONE', #21, .T. ) ;
#37 = ORIENTED_EDGE ( 'NONE', *, *, #32, .F. ) ;
#38 = PLANE ( 'NONE',  #63 ) ;
#39 = DIRECTION ( 'NONE',  ( -0.0000000000000000000, -0.0000000000000000000, -1.000000000000000000 ) ) ;
#40 =( GEOMETRIC_REPRESENTATION_CONTEXT ( 3 ) GLOBAL_UNCERTAINTY_ASSIGNED_CONTEXT ( ( #111 ) ) GLOBAL_UNIT_ASSIGNED_CONTEXT ( ( #97, #50, #121 ) ) REPRESENTATION_CONTEXT ( 'NONE', 'WORKASPACE' ) );
#41 = EDGE_CURVE ( 'NONE', #86, #104, #134, .T. ) ;
#42 = PRODUCT_DEFINITION_FORMATION_WITH_SPECIFIED_SOURCE ( 'ÈÎºÎ', '', #65, .NOT_KNOWN. ) ;
#43 = SURFACE_STYLE_USAGE ( .BOTH. , #58 ) ;
#44 = CARTESIAN_POINT ( 'NONE',  ( 0.0000000000000000000, 0.0000000000000000000, 0.0000000000000000000 ) ) ;
#45 = DIRECTION ( 'NONE',  ( 1.000000000000000000, 0.0000000000000000000, 0.0000000000000000000 ) ) ;
#46 = CYLINDRICAL_SURFACE ( 'NONE', #10, 3.150000000000000400 ) ;
#47 = UNCERTAINTY_MEASURE_WITH_UNIT (LENGTH_MEASURE( 1.000000000000000100E-005 ), #92, 'distance_accuracy_value', 'NONE');
#48 = CARTESIAN_POINT ( 'NONE',  ( 0.0000000000000000000, 0.0000000000000000000, 0.5000000000000000000 ) ) ;
#49 = DIRECTION ( 'NONE',  ( -0.0000000000000000000, -0.0000000000000000000, -1.000000000000000000 ) ) ;
#50 =( NAMED_UNIT ( * ) PLANE_ANGLE_UNIT ( ) SI_UNIT ( $, .RADIAN. ) );
#51 = CARTESIAN_POINT ( 'NONE',  ( -3.150000000000000400, 0.0000000000000000000, 0.0000000000000000000 ) ) ;
#52 = VECTOR ( 'NONE', #133, 1000.000000000000000 ) ;
#53 = PRODUCT_RELATED_PRODUCT_CATEGORY ( 'part', '', ( #65 ) ) ;
#54 = ADVANCED_FACE ( 'NONE', ( #55 ), #98, .T. ) ;
#55 = FACE_OUTER_BOUND ( 'NONE', #96, .T. ) ;
#56 = AXIS2_PLACEMENT_3D ( 'NONE', #60, #117, #45 ) ;
#57 = EDGE_CURVE ( 'NONE', #90, #30, #18, .T. ) ;
#58 = SURFACE_SIDE_STYLE ('',( #7 ) ) ;
#59 = DIRECTION ( 'NONE',  ( 0.0000000000000000000, 0.0000000000000000000, 1.000000000000000000 ) ) ;
#60 = CARTESIAN_POINT ( 'NONE',  ( 0.0000000000000000000, 0.0000000000000000000, 0.0000000000000000000 ) ) ;
#61 = ORIENTED_EDGE ( 'NONE', *, *, #41, .F. ) ;
#62 = CARTESIAN_POINT ( 'NONE',  ( 0.0000000000000000000, 0.0000000000000000000, 0.5000000000000000000 ) ) ;
#63 = AXIS2_PLACEMENT_3D ( 'NONE', #106, #34, #94 ) ;
#64 = EDGE_LOOP ( 'NONE', ( #81, #37, #82, #26 ) ) ;
#65 = PRODUCT ( '190112', '190112', '', ( #125 ) ) ;
#66 = FACE_OUTER_BOUND ( 'NONE', #11, .T. ) ;
#67 = ORIENTED_EDGE ( 'NONE', *, *, #57, .T. ) ;
#68 = APPLICATION_CONTEXT ( 'automotive_design' ) ;
#69 = APPLICATION_CONTEXT ( 'automotive_design' ) ;
#70 = DIRECTION ( 'NONE',  ( 0.0000000000000000000, 0.0000000000000000000, 1.000000000000000000 ) ) ;
#71 = AXIS2_PLACEMENT_3D ( 'NONE', #93, #23, #84 ) ;
#72 = SURFACE_SIDE_STYLE ('',( #24 ) ) ;
#73 = ADVANCED_BREP_SHAPE_REPRESENTATION ( '190112', ( #74, #29 ), #99 ) ;
#74 = MANIFOLD_SOLID_BREP ( 'Í¹Ì¨-À­Éì1', #114 ) ;
#75 = COLOUR_RGB ( '',1.000000000000000000, 1.000000000000000000, 1.000000000000000000 ) ;
#76 = AXIS2_PLACEMENT_3D ( 'NONE', #140, #70, #128 ) ;
#77 = DIRECTION ( 'NONE',  ( 1.000000000000000000, 0.0000000000000000000, 0.0000000000000000000 ) ) ;
#78 = APPLICATION_PROTOCOL_DEFINITION ( 'draft international standard', 'automotive_design', 1998, #69 ) ;
#79 = CARTESIAN_POINT ( 'NONE',  ( 0.0000000000000000000, 0.0000000000000000000, 0.0000000000000000000 ) ) ;
#80 = DIRECTION ( 'NONE',  ( 1.000000000000000000, 0.0000000000000000000, 0.0000000000000000000 ) ) ;
#81 = ORIENTED_EDGE ( 'NONE', *, *, #57, .F. ) ;
#82 = ORIENTED_EDGE ( 'NONE', *, *, #41, .T. ) ;
#83 =( NAMED_UNIT ( * ) SI_UNIT ( $, .STERADIAN. ) SOLID_ANGLE_UNIT ( ) );
#84 = DIRECTION ( 'NONE',  ( 1.000000000000000000, 0.0000000000000000000, 0.0000000000000000000 ) ) ;
#85 = FILL_AREA_STYLE_COLOUR ( '', #2 ) ;
#86 = VERTEX_POINT ( 'NONE', #109 ) ;
#87 = CARTESIAN_POINT ( 'NONE',  ( -3.150000000000000400, 0.0000000000000000000, 0.5000000000000000000 ) ) ;
#88 = FILL_AREA_STYLE_COLOUR ( '', #75 ) ;
#89 = CIRCLE ( 'NONE', #76, 3.150000000000000400 ) ;
#90 = VERTEX_POINT ( 'NONE', #4 ) ;
#91 = ADVANCED_FACE ( 'NONE', ( #36 ), #38, .T. ) ;
#92 =( LENGTH_UNIT ( ) NAMED_UNIT ( * ) SI_UNIT ( .MILLI., .METRE. ) );
#93 = CARTESIAN_POINT ( 'NONE',  ( 0.0000000000000000000, 0.0000000000000000000, 0.0000000000000000000 ) ) ;
#94 = DIRECTION ( 'NONE',  ( 1.000000000000000000, 0.0000000000000000000, -0.0000000000000000000 ) ) ;
#95 = CARTESIAN_POINT ( 'NONE',  ( 0.0000000000000000000, 0.0000000000000000000, 0.5000000000000000000 ) ) ;
#96 = EDGE_LOOP ( 'NONE', ( #139, #67, #8, #61 ) ) ;
#97 =( LENGTH_UNIT ( ) NAMED_UNIT ( * ) SI_UNIT ( .MILLI., .METRE. ) );
#98 = CYLINDRICAL_SURFACE ( 'NONE', #25, 3.150000000000000400 ) ;
#99 =( GEOMETRIC_REPRESENTATION_CONTEXT ( 3 ) GLOBAL_UNCERTAINTY_ASSIGNED_CONTEXT ( ( #47 ) ) GLOBAL_UNIT_ASSIGNED_CONTEXT ( ( #92, #22, #83 ) ) REPRESENTATION_CONTEXT ( 'NONE', 'WORKASPACE' ) );
#100 = CIRCLE ( 'NONE', #1, 3.150000000000000400 ) ;
#101 = SHAPE_DEFINITION_REPRESENTATION ( #102, #73 ) ;
#102 = PRODUCT_DEFINITION_SHAPE ( 'NONE', 'NONE',  #35 ) ;
#103 =( LENGTH_UNIT ( ) NAMED_UNIT ( * ) SI_UNIT ( .MILLI., .METRE. ) );
#104 = VERTEX_POINT ( 'NONE', #51 ) ;
#105 = PLANE ( 'NONE',  #107 ) ;
#106 = CARTESIAN_POINT ( 'NONE',  ( 0.0000000000000000000, 0.0000000000000000000, 0.5000000000000000000 ) ) ;
#107 = AXIS2_PLACEMENT_3D ( 'NONE', #79, #59, #116 ) ;
#108 = ORIENTED_EDGE ( 'NONE', *, *, #110, .F. ) ;
#109 = CARTESIAN_POINT ( 'NONE',  ( -3.150000000000000400, 0.0000000000000000000, 0.5000000000000000000 ) ) ;
#110 = EDGE_CURVE ( 'NONE', #104, #30, #112, .T. ) ;
#111 = UNCERTAINTY_MEASURE_WITH_UNIT (LENGTH_MEASURE( 1.000000000000000100E-005 ), #97, 'distance_accuracy_value', 'NONE');
#112 = CIRCLE ( 'NONE', #56, 3.150000000000000400 ) ;
#113 = PRESENTATION_STYLE_ASSIGNMENT (( #43 ) ) ;
#114 = CLOSED_SHELL ( 'NONE', ( #54, #9, #91, #136 ) ) ;
#115 =( NAMED_UNIT ( * ) SI_UNIT ( $, .STERADIAN. ) SOLID_ANGLE_UNIT ( ) );
#116 = DIRECTION ( 'NONE',  ( 1.000000000000000000, 0.0000000000000000000, -0.0000000000000000000 ) ) ;
#117 = DIRECTION ( 'NONE',  ( 0.0000000000000000000, 0.0000000000000000000, 1.000000000000000000 ) ) ;
#118 = EDGE_CURVE ( 'NONE', #30, #104, #6, .T. ) ;
#119 = ORIENTED_EDGE ( 'NONE', *, *, #32, .T. ) ;
#120 = DIRECTION ( 'NONE',  ( -1.000000000000000000, 0.0000000000000000000, 0.0000000000000000000 ) ) ;
#121 =( NAMED_UNIT ( * ) SI_UNIT ( $, .STERADIAN. ) SOLID_ANGLE_UNIT ( ) );
#122 = CARTESIAN_POINT ( 'NONE',  ( 3.150000000000000400, 3.857637417314163200E-016, 0.5000000000000000000 ) ) ;
#123 = STYLED_ITEM ( 'NONE', ( #113 ), #73 ) ;
#124 = EDGE_CURVE ( 'NONE', #90, #86, #89, .T. ) ;
#125 = PRODUCT_CONTEXT ( 'NONE', #69, 'mechanical' ) ;
#126 = FILL_AREA_STYLE ('',( #85 ) ) ;
#127 = ORIENTED_EDGE ( 'NONE', *, *, #118, .F. ) ;
#128 = DIRECTION ( 'NONE',  ( 1.000000000000000000, 0.0000000000000000000, 0.0000000000000000000 ) ) ;
#129 = VECTOR ( 'NONE', #49, 1000.000000000000000 ) ;
#130 = PRESENTATION_LAYER_ASSIGNMENT (  '', '', ( #123 ) ) ;
#131 = DIRECTION ( 'NONE',  ( -1.000000000000000000, 0.0000000000000000000, 0.0000000000000000000 ) ) ;
#132 = FACE_OUTER_BOUND ( 'NONE', #64, .T. ) ;
#133 = DIRECTION ( 'NONE',  ( -0.0000000000000000000, -0.0000000000000000000, -1.000000000000000000 ) ) ;
#134 = LINE ( 'NONE', #87, #129 ) ;
#135 = PRESENTATION_LAYER_ASSIGNMENT (  '', '', ( #16 ) ) ;
#136 = ADVANCED_FACE ( 'NONE', ( #66 ), #105, .F. ) ;
#137 = MECHANICAL_DESIGN_GEOMETRIC_PRESENTATION_REPRESENTATION (  '', ( #123 ), #5 ) ;
#138 = APPLICATION_PROTOCOL_DEFINITION ( 'draft international standard', 'automotive_design', 1998, #68 ) ;
#139 = ORIENTED_EDGE ( 'NONE', *, *, #124, .F. ) ;
#140 = CARTESIAN_POINT ( 'NONE',  ( 0.0000000000000000000, 0.0000000000000000000, 0.5000000000000000000 ) ) ;
ENDSEC;
END-ISO-10303-21;
