ISO-10303-21;
HEADER;
FILE_DESCRIPTION (( 'STEP AP214' ),
    '1' );
FILE_NAME ('190007.STEP',
    '2019-07-15T05:59:45',
    ( 'user' ),
    ( 'Î¢ÈíÖÐ¹ú' ),
    'SwSTEP 2.0',
    'SolidWorks 2016',
    '' );
FILE_SCHEMA (( 'AUTOMOTIVE_DESIGN' ));
ENDSEC;

DATA;
#1 = EDGE_LOOP ( 'NONE', ( #86, #15, #41, #127 ) ) ;
#2 = CLOSED_SHELL ( 'NONE', ( #30, #123, #85, #42 ) ) ;
#3 = ADVANCED_BREP_SHAPE_REPRESENTATION ( '190007', ( #37, #110 ), #19 ) ;
#4 = CIRCLE ( 'NONE', #67, 15.00000000000000000 ) ;
#5 = CARTESIAN_POINT ( 'NONE',  ( 0.0000000000000000000, 0.0000000000000000000, 3.000000000000000000 ) ) ;
#6 = AXIS2_PLACEMENT_3D ( 'NONE', #119, #55, #126 ) ;
#7 = APPLICATION_PROTOCOL_DEFINITION ( 'draft international standard', 'automotive_design', 1998, #87 ) ;
#8 =( NAMED_UNIT ( * ) SI_UNIT ( $, .STERADIAN. ) SOLID_ANGLE_UNIT ( ) );
#9 = DIRECTION ( 'NONE',  ( -0.0000000000000000000, -0.0000000000000000000, -1.000000000000000000 ) ) ;
#10 = MECHANICAL_DESIGN_GEOMETRIC_PRESENTATION_REPRESENTATION (  '', ( #97 ), #34 ) ;
#11 = ORIENTED_EDGE ( 'NONE', *, *, #81, .F. ) ;
#12 = EDGE_LOOP ( 'NONE', ( #138, #77 ) ) ;
#13 = LINE ( 'NONE', #131, #128 ) ;
#14 = DIRECTION ( 'NONE',  ( -1.000000000000000000, 0.0000000000000000000, 0.0000000000000000000 ) ) ;
#15 = ORIENTED_EDGE ( 'NONE', *, *, #81, .T. ) ;
#16 = DIRECTION ( 'NONE',  ( 0.0000000000000000000, 0.0000000000000000000, 1.000000000000000000 ) ) ;
#17 = PLANE ( 'NONE',  #28 ) ;
#18 = SHAPE_DEFINITION_REPRESENTATION ( #63, #3 ) ;
#19 =( GEOMETRIC_REPRESENTATION_CONTEXT ( 3 ) GLOBAL_UNCERTAINTY_ASSIGNED_CONTEXT ( ( #66 ) ) GLOBAL_UNIT_ASSIGNED_CONTEXT ( ( #54, #100, #8 ) ) REPRESENTATION_CONTEXT ( 'NONE', 'WORKASPACE' ) );
#20 = PRODUCT_CONTEXT ( 'NONE', #117, 'mechanical' ) ;
#21 = CARTESIAN_POINT ( 'NONE',  ( 15.00000000000000000, 1.836970198721029600E-015, 3.000000000000000000 ) ) ;
#22 =( LENGTH_UNIT ( ) NAMED_UNIT ( * ) SI_UNIT ( .MILLI., .METRE. ) );
#23 = FACE_OUTER_BOUND ( 'NONE', #12, .T. ) ;
#24 = VERTEX_POINT ( 'NONE', #21 ) ;
#25 = AXIS2_PLACEMENT_3D ( 'NONE', #130, #64, #14 ) ;
#26 = FILL_AREA_STYLE ('',( #51 ) ) ;
#27 = DIRECTION ( 'NONE',  ( 1.000000000000000000, 0.0000000000000000000, -0.0000000000000000000 ) ) ;
#28 = AXIS2_PLACEMENT_3D ( 'NONE', #72, #107, #27 ) ;
#29 = PRESENTATION_STYLE_ASSIGNMENT (( #71 ) ) ;
#30 = ADVANCED_FACE ( 'NONE', ( #52 ), #91, .T. ) ;
#31 = DIRECTION ( 'NONE',  ( 0.0000000000000000000, 0.0000000000000000000, 1.000000000000000000 ) ) ;
#32 = ORIENTED_EDGE ( 'NONE', *, *, #36, .F. ) ;
#33 = SURFACE_SIDE_STYLE ('',( #139 ) ) ;
#34 =( GEOMETRIC_REPRESENTATION_CONTEXT ( 3 ) GLOBAL_UNCERTAINTY_ASSIGNED_CONTEXT ( ( #111 ) ) GLOBAL_UNIT_ASSIGNED_CONTEXT ( ( #50, #114, #132 ) ) REPRESENTATION_CONTEXT ( 'NONE', 'WORKASPACE' ) );
#35 = EDGE_LOOP ( 'NONE', ( #32, #47 ) ) ;
#36 = EDGE_CURVE ( 'NONE', #75, #134, #4, .T. ) ;
#37 = MANIFOLD_SOLID_BREP ( 'Í¹Ì¨-À­Éì1', #2 ) ;
#38 =( NAMED_UNIT ( * ) PLANE_ANGLE_UNIT ( ) SI_UNIT ( $, .RADIAN. ) );
#39 = EDGE_CURVE ( 'NONE', #94, #75, #13, .T. ) ;
#40 = SURFACE_SIDE_STYLE ('',( #105 ) ) ;
#41 = ORIENTED_EDGE ( 'NONE', *, *, #90, .T. ) ;
#42 = ADVANCED_FACE ( 'NONE', ( #68 ), #17, .F. ) ;
#43 = PRODUCT ( '190007', '190007', '', ( #20 ) ) ;
#44 = CARTESIAN_POINT ( 'NONE',  ( 15.00000000000000000, 1.836970198721029600E-015, 0.0000000000000000000 ) ) ;
#45 = EDGE_CURVE ( 'NONE', #94, #24, #76, .T. ) ;
#46 = CIRCLE ( 'NONE', #6, 15.00000000000000000 ) ;
#47 = ORIENTED_EDGE ( 'NONE', *, *, #90, .F. ) ;
#48 = CIRCLE ( 'NONE', #83, 15.00000000000000000 ) ;
#49 = CARTESIAN_POINT ( 'NONE',  ( 0.0000000000000000000, 0.0000000000000000000, 0.0000000000000000000 ) ) ;
#50 =( LENGTH_UNIT ( ) NAMED_UNIT ( * ) SI_UNIT ( .MILLI., .METRE. ) );
#51 = FILL_AREA_STYLE_COLOUR ( '', #56 ) ;
#52 = FACE_OUTER_BOUND ( 'NONE', #1, .T. ) ;
#53 = EDGE_LOOP ( 'NONE', ( #11, #95, #120, #121 ) ) ;
#54 =( LENGTH_UNIT ( ) NAMED_UNIT ( * ) SI_UNIT ( .MILLI., .METRE. ) );
#55 = DIRECTION ( 'NONE',  ( 0.0000000000000000000, 0.0000000000000000000, 1.000000000000000000 ) ) ;
#56 = COLOUR_RGB ( '',1.000000000000000000, 1.000000000000000000, 1.000000000000000000 ) ;
#57 = AXIS2_PLACEMENT_3D ( 'NONE', #5, #135, #96 ) ;
#58 = CARTESIAN_POINT ( 'NONE',  ( -15.00000000000000000, 0.0000000000000000000, 3.000000000000000000 ) ) ;
#59 = PRESENTATION_LAYER_ASSIGNMENT (  '', '', ( #97 ) ) ;
#60 = PRESENTATION_LAYER_ASSIGNMENT (  '', '', ( #65 ) ) ;
#61 = DIRECTION ( 'NONE',  ( 0.0000000000000000000, 0.0000000000000000000, 1.000000000000000000 ) ) ;
#62 = DIRECTION ( 'NONE',  ( 1.000000000000000000, 0.0000000000000000000, 0.0000000000000000000 ) ) ;
#63 = PRODUCT_DEFINITION_SHAPE ( 'NONE', 'NONE',  #93 ) ;
#64 = DIRECTION ( 'NONE',  ( -0.0000000000000000000, -0.0000000000000000000, -1.000000000000000000 ) ) ;
#65 = STYLED_ITEM ( 'NONE', ( #29 ), #3 ) ;
#66 = UNCERTAINTY_MEASURE_WITH_UNIT (LENGTH_MEASURE( 1.000000000000000100E-005 ), #54, 'distance_accuracy_value', 'NONE');
#67 = AXIS2_PLACEMENT_3D ( 'NONE', #49, #16, #82 ) ;
#68 = FACE_OUTER_BOUND ( 'NONE', #35, .T. ) ;
#69 =( NAMED_UNIT ( * ) SI_UNIT ( $, .STERADIAN. ) SOLID_ANGLE_UNIT ( ) );
#70 = MECHANICAL_DESIGN_GEOMETRIC_PRESENTATION_REPRESENTATION (  '', ( #65 ), #74 ) ;
#71 = SURFACE_STYLE_USAGE ( .BOTH. , #33 ) ;
#72 = CARTESIAN_POINT ( 'NONE',  ( 0.0000000000000000000, 0.0000000000000000000, 0.0000000000000000000 ) ) ;
#73 = CARTESIAN_POINT ( 'NONE',  ( 0.0000000000000000000, 0.0000000000000000000, 3.000000000000000000 ) ) ;
#74 =( GEOMETRIC_REPRESENTATION_CONTEXT ( 3 ) GLOBAL_UNCERTAINTY_ASSIGNED_CONTEXT ( ( #112 ) ) GLOBAL_UNIT_ASSIGNED_CONTEXT ( ( #22, #38, #69 ) ) REPRESENTATION_CONTEXT ( 'NONE', 'WORKASPACE' ) );
#75 = VERTEX_POINT ( 'NONE', #115 ) ;
#76 = CIRCLE ( 'NONE', #103, 15.00000000000000000 ) ;
#77 = ORIENTED_EDGE ( 'NONE', *, *, #102, .T. ) ;
#78 = CARTESIAN_POINT ( 'NONE',  ( 0.0000000000000000000, 0.0000000000000000000, 3.000000000000000000 ) ) ;
#79 = PLANE ( 'NONE',  #116 ) ;
#80 = PRODUCT_RELATED_PRODUCT_CATEGORY ( 'part', '', ( #43 ) ) ;
#81 = EDGE_CURVE ( 'NONE', #24, #134, #129, .T. ) ;
#82 = DIRECTION ( 'NONE',  ( 1.000000000000000000, 0.0000000000000000000, 0.0000000000000000000 ) ) ;
#83 = AXIS2_PLACEMENT_3D ( 'NONE', #78, #136, #62 ) ;
#84 = DIRECTION ( 'NONE',  ( -0.0000000000000000000, -0.0000000000000000000, -1.000000000000000000 ) ) ;
#85 = ADVANCED_FACE ( 'NONE', ( #23 ), #79, .T. ) ;
#86 = ORIENTED_EDGE ( 'NONE', *, *, #102, .F. ) ;
#87 = APPLICATION_CONTEXT ( 'automotive_design' ) ;
#88 = PRODUCT_DEFINITION_FORMATION_WITH_SPECIFIED_SOURCE ( 'ÈÎºÎ', '', #43, .NOT_KNOWN. ) ;
#89 = DIRECTION ( 'NONE',  ( 1.000000000000000000, 0.0000000000000000000, 0.0000000000000000000 ) ) ;
#90 = EDGE_CURVE ( 'NONE', #134, #75, #46, .T. ) ;
#91 = CYLINDRICAL_SURFACE ( 'NONE', #57, 15.00000000000000000 ) ;
#92 = DIRECTION ( 'NONE',  ( 1.000000000000000000, 0.0000000000000000000, -0.0000000000000000000 ) ) ;
#93 = PRODUCT_DEFINITION ( 'Î´Öª', '', #88, #140 ) ;
#94 = VERTEX_POINT ( 'NONE', #58 ) ;
#95 = ORIENTED_EDGE ( 'NONE', *, *, #45, .F. ) ;
#96 = DIRECTION ( 'NONE',  ( -1.000000000000000000, 0.0000000000000000000, 0.0000000000000000000 ) ) ;
#97 = STYLED_ITEM ( 'NONE', ( #122 ), #37 ) ;
#98 = DIRECTION ( 'NONE',  ( 1.000000000000000000, 0.0000000000000000000, 0.0000000000000000000 ) ) ;
#99 = FACE_OUTER_BOUND ( 'NONE', #53, .T. ) ;
#100 =( NAMED_UNIT ( * ) PLANE_ANGLE_UNIT ( ) SI_UNIT ( $, .RADIAN. ) );
#101 = FILL_AREA_STYLE ('',( #118 ) ) ;
#102 = EDGE_CURVE ( 'NONE', #24, #94, #48, .T. ) ;
#103 = AXIS2_PLACEMENT_3D ( 'NONE', #73, #61, #89 ) ;
#104 = VECTOR ( 'NONE', #9, 1000.000000000000000 ) ;
#105 = SURFACE_STYLE_FILL_AREA ( #26 ) ;
#106 = SURFACE_STYLE_USAGE ( .BOTH. , #40 ) ;
#107 = DIRECTION ( 'NONE',  ( 0.0000000000000000000, 0.0000000000000000000, 1.000000000000000000 ) ) ;
#108 = CYLINDRICAL_SURFACE ( 'NONE', #25, 15.00000000000000000 ) ;
#109 = CARTESIAN_POINT ( 'NONE',  ( 0.0000000000000000000, 0.0000000000000000000, 0.0000000000000000000 ) ) ;
#110 = AXIS2_PLACEMENT_3D ( 'NONE', #109, #31, #98 ) ;
#111 = UNCERTAINTY_MEASURE_WITH_UNIT (LENGTH_MEASURE( 1.000000000000000100E-005 ), #50, 'distance_accuracy_value', 'NONE');
#112 = UNCERTAINTY_MEASURE_WITH_UNIT (LENGTH_MEASURE( 1.000000000000000100E-005 ), #22, 'distance_accuracy_value', 'NONE');
#113 = COLOUR_RGB ( '',1.000000000000000000, 1.000000000000000000, 1.000000000000000000 ) ;
#114 =( NAMED_UNIT ( * ) PLANE_ANGLE_UNIT ( ) SI_UNIT ( $, .RADIAN. ) );
#115 = CARTESIAN_POINT ( 'NONE',  ( -15.00000000000000000, 0.0000000000000000000, 0.0000000000000000000 ) ) ;
#116 = AXIS2_PLACEMENT_3D ( 'NONE', #125, #137, #92 ) ;
#117 = APPLICATION_CONTEXT ( 'automotive_design' ) ;
#118 = FILL_AREA_STYLE_COLOUR ( '', #113 ) ;
#119 = CARTESIAN_POINT ( 'NONE',  ( 0.0000000000000000000, 0.0000000000000000000, 0.0000000000000000000 ) ) ;
#120 = ORIENTED_EDGE ( 'NONE', *, *, #39, .T. ) ;
#121 = ORIENTED_EDGE ( 'NONE', *, *, #36, .T. ) ;
#122 = PRESENTATION_STYLE_ASSIGNMENT (( #106 ) ) ;
#123 = ADVANCED_FACE ( 'NONE', ( #99 ), #108, .T. ) ;
#124 = APPLICATION_PROTOCOL_DEFINITION ( 'draft international standard', 'automotive_design', 1998, #117 ) ;
#125 = CARTESIAN_POINT ( 'NONE',  ( 0.0000000000000000000, 0.0000000000000000000, 3.000000000000000000 ) ) ;
#126 = DIRECTION ( 'NONE',  ( 1.000000000000000000, 0.0000000000000000000, 0.0000000000000000000 ) ) ;
#127 = ORIENTED_EDGE ( 'NONE', *, *, #39, .F. ) ;
#128 = VECTOR ( 'NONE', #84, 1000.000000000000000 ) ;
#129 = LINE ( 'NONE', #133, #104 ) ;
#130 = CARTESIAN_POINT ( 'NONE',  ( 0.0000000000000000000, 0.0000000000000000000, 3.000000000000000000 ) ) ;
#131 = CARTESIAN_POINT ( 'NONE',  ( -15.00000000000000000, 0.0000000000000000000, 3.000000000000000000 ) ) ;
#132 =( NAMED_UNIT ( * ) SI_UNIT ( $, .STERADIAN. ) SOLID_ANGLE_UNIT ( ) );
#133 = CARTESIAN_POINT ( 'NONE',  ( 15.00000000000000000, 1.836970198721029600E-015, 3.000000000000000000 ) ) ;
#134 = VERTEX_POINT ( 'NONE', #44 ) ;
#135 = DIRECTION ( 'NONE',  ( -0.0000000000000000000, -0.0000000000000000000, -1.000000000000000000 ) ) ;
#136 = DIRECTION ( 'NONE',  ( 0.0000000000000000000, 0.0000000000000000000, 1.000000000000000000 ) ) ;
#137 = DIRECTION ( 'NONE',  ( 0.0000000000000000000, 0.0000000000000000000, 1.000000000000000000 ) ) ;
#138 = ORIENTED_EDGE ( 'NONE', *, *, #45, .T. ) ;
#139 = SURFACE_STYLE_FILL_AREA ( #101 ) ;
#140 = PRODUCT_DEFINITION_CONTEXT ( 'detailed design', #87, 'design' ) ;
ENDSEC;
END-ISO-10303-21;
