ISO-10303-21;
HEADER;
FILE_DESCRIPTION (( 'STEP AP214' ),
    '1' );
FILE_NAME ('185008.STEP',
    '2019-07-12T01:49:35',
    ( 'user' ),
    ( 'Î¢ÈíÖÐ¹ú' ),
    'SwSTEP 2.0',
    'SolidWorks 2016',
    '' );
FILE_SCHEMA (( 'AUTOMOTIVE_DESIGN' ));
ENDSEC;

DATA;
#1 = EDGE_LOOP ( 'NONE', ( #14, #117 ) ) ;
#2 = FILL_AREA_STYLE_COLOUR ( '', #79 ) ;
#3 = FACE_OUTER_BOUND ( 'NONE', #56, .T. ) ;
#4 = MECHANICAL_DESIGN_GEOMETRIC_PRESENTATION_REPRESENTATION (  '', ( #119 ), #11 ) ;
#5 = EDGE_CURVE ( 'NONE', #48, #86, #76, .T. ) ;
#6 = APPLICATION_CONTEXT ( 'automotive_design' ) ;
#7 = FILL_AREA_STYLE ('',( #2 ) ) ;
#8 = CARTESIAN_POINT ( 'NONE',  ( -19.05000000000000100, 0.0000000000000000000, 10.00000000000000000 ) ) ;
#9 = PLANE ( 'NONE',  #13 ) ;
#10 = CIRCLE ( 'NONE', #81, 19.05000000000000100 ) ;
#11 =( GEOMETRIC_REPRESENTATION_CONTEXT ( 3 ) GLOBAL_UNCERTAINTY_ASSIGNED_CONTEXT ( ( #25 ) ) GLOBAL_UNIT_ASSIGNED_CONTEXT ( ( #89, #68, #37 ) ) REPRESENTATION_CONTEXT ( 'NONE', 'WORKASPACE' ) );
#12 = VERTEX_POINT ( 'NONE', #82 ) ;
#13 = AXIS2_PLACEMENT_3D ( 'NONE', #77, #19, #40 ) ;
#14 = ORIENTED_EDGE ( 'NONE', *, *, #103, .T. ) ;
#15 = ADVANCED_FACE ( 'NONE', ( #3 ), #9, .F. ) ;
#16 = CARTESIAN_POINT ( 'NONE',  ( 0.0000000000000000000, 0.0000000000000000000, 10.00000000000000000 ) ) ;
#17 =( NAMED_UNIT ( * ) PLANE_ANGLE_UNIT ( ) SI_UNIT ( $, .RADIAN. ) );
#18 = CARTESIAN_POINT ( 'NONE',  ( 0.0000000000000000000, 0.0000000000000000000, 0.0000000000000000000 ) ) ;
#19 = DIRECTION ( 'NONE',  ( 0.0000000000000000000, 0.0000000000000000000, 1.000000000000000000 ) ) ;
#20 = CYLINDRICAL_SURFACE ( 'NONE', #27, 19.05000000000000100 ) ;
#21 = FILL_AREA_STYLE ('',( #96 ) ) ;
#22 = AXIS2_PLACEMENT_3D ( 'NONE', #93, #111, #139 ) ;
#23 = CYLINDRICAL_SURFACE ( 'NONE', #70, 19.05000000000000100 ) ;
#24 = CARTESIAN_POINT ( 'NONE',  ( 0.0000000000000000000, 0.0000000000000000000, 10.00000000000000000 ) ) ;
#25 = UNCERTAINTY_MEASURE_WITH_UNIT (LENGTH_MEASURE( 1.000000000000000100E-005 ), #89, 'distance_accuracy_value', 'NONE');
#26 = ADVANCED_FACE ( 'NONE', ( #52 ), #20, .T. ) ;
#27 = AXIS2_PLACEMENT_3D ( 'NONE', #16, #94, #112 ) ;
#28 = DIRECTION ( 'NONE',  ( 0.0000000000000000000, 0.0000000000000000000, 1.000000000000000000 ) ) ;
#29 = ORIENTED_EDGE ( 'NONE', *, *, #55, .T. ) ;
#30 = AXIS2_PLACEMENT_3D ( 'NONE', #18, #28, #126 ) ;
#31 = DIRECTION ( 'NONE',  ( -1.000000000000000000, 0.0000000000000000000, 0.0000000000000000000 ) ) ;
#32 = ORIENTED_EDGE ( 'NONE', *, *, #132, .T. ) ;
#33 = STYLED_ITEM ( 'NONE', ( #102 ), #60 ) ;
#34 = SURFACE_STYLE_USAGE ( .BOTH. , #53 ) ;
#35 = PRODUCT_DEFINITION ( 'Î´Öª', '', #42, #72 ) ;
#36 = PRODUCT ( '185008', '185008', '', ( #92 ) ) ;
#37 =( NAMED_UNIT ( * ) SI_UNIT ( $, .STERADIAN. ) SOLID_ANGLE_UNIT ( ) );
#38 = LINE ( 'NONE', #75, #127 ) ;
#39 = PRESENTATION_LAYER_ASSIGNMENT (  '', '', ( #33 ) ) ;
#40 = DIRECTION ( 'NONE',  ( 1.000000000000000000, 0.0000000000000000000, -0.0000000000000000000 ) ) ;
#41 = EDGE_CURVE ( 'NONE', #12, #86, #71, .T. ) ;
#42 = PRODUCT_DEFINITION_FORMATION_WITH_SPECIFIED_SOURCE ( 'ÈÎºÎ', '', #36, .NOT_KNOWN. ) ;
#43 = MECHANICAL_DESIGN_GEOMETRIC_PRESENTATION_REPRESENTATION (  '', ( #33 ), #50 ) ;
#44 = DIRECTION ( 'NONE',  ( 0.0000000000000000000, 0.0000000000000000000, 1.000000000000000000 ) ) ;
#45 = CARTESIAN_POINT ( 'NONE',  ( 0.0000000000000000000, 0.0000000000000000000, 10.00000000000000000 ) ) ;
#46 = PRESENTATION_STYLE_ASSIGNMENT (( #34 ) ) ;
#47 = DIRECTION ( 'NONE',  ( 1.000000000000000000, 0.0000000000000000000, -0.0000000000000000000 ) ) ;
#48 = VERTEX_POINT ( 'NONE', #63 ) ;
#49 = PRODUCT_RELATED_PRODUCT_CATEGORY ( 'part', '', ( #36 ) ) ;
#50 =( GEOMETRIC_REPRESENTATION_CONTEXT ( 3 ) GLOBAL_UNCERTAINTY_ASSIGNED_CONTEXT ( ( #99 ) ) GLOBAL_UNIT_ASSIGNED_CONTEXT ( ( #83, #129, #125 ) ) REPRESENTATION_CONTEXT ( 'NONE', 'WORKASPACE' ) );
#51 = VERTEX_POINT ( 'NONE', #122 ) ;
#52 = FACE_OUTER_BOUND ( 'NONE', #101, .T. ) ;
#53 = SURFACE_SIDE_STYLE ('',( #88 ) ) ;
#54 = CARTESIAN_POINT ( 'NONE',  ( 0.0000000000000000000, 0.0000000000000000000, 10.00000000000000000 ) ) ;
#55 = EDGE_CURVE ( 'NONE', #51, #12, #38, .T. ) ;
#56 = EDGE_LOOP ( 'NONE', ( #59, #107 ) ) ;
#57 = SURFACE_STYLE_USAGE ( .BOTH. , #114 ) ;
#58 = CLOSED_SHELL ( 'NONE', ( #61, #26, #109, #15 ) ) ;
#59 = ORIENTED_EDGE ( 'NONE', *, *, #132, .F. ) ;
#60 = MANIFOLD_SOLID_BREP ( 'Í¹Ì¨-À­Éì1', #58 ) ;
#61 = ADVANCED_FACE ( 'NONE', ( #104 ), #23, .T. ) ;
#62 = PRODUCT_DEFINITION_SHAPE ( 'NONE', 'NONE',  #35 ) ;
#63 = CARTESIAN_POINT ( 'NONE',  ( -19.05000000000000100, 0.0000000000000000000, 10.00000000000000000 ) ) ;
#64 = AXIS2_PLACEMENT_3D ( 'NONE', #45, #44, #140 ) ;
#65 = CARTESIAN_POINT ( 'NONE',  ( 0.0000000000000000000, 0.0000000000000000000, 0.0000000000000000000 ) ) ;
#66 =( NAMED_UNIT ( * ) SI_UNIT ( $, .STERADIAN. ) SOLID_ANGLE_UNIT ( ) );
#67 = ORIENTED_EDGE ( 'NONE', *, *, #41, .T. ) ;
#68 =( NAMED_UNIT ( * ) PLANE_ANGLE_UNIT ( ) SI_UNIT ( $, .RADIAN. ) );
#69 = SURFACE_STYLE_FILL_AREA ( #21 ) ;
#70 = AXIS2_PLACEMENT_3D ( 'NONE', #24, #106, #31 ) ;
#71 = CIRCLE ( 'NONE', #22, 19.05000000000000100 ) ;
#72 = PRODUCT_DEFINITION_CONTEXT ( 'detailed design', #6, 'design' ) ;
#73 = DIRECTION ( 'NONE',  ( 0.0000000000000000000, 0.0000000000000000000, 1.000000000000000000 ) ) ;
#74 =( LENGTH_UNIT ( ) NAMED_UNIT ( * ) SI_UNIT ( .MILLI., .METRE. ) );
#75 = CARTESIAN_POINT ( 'NONE',  ( 19.05000000000000100, 2.332952152375708000E-015, 10.00000000000000000 ) ) ;
#76 = LINE ( 'NONE', #8, #87 ) ;
#77 = CARTESIAN_POINT ( 'NONE',  ( 0.0000000000000000000, 0.0000000000000000000, 0.0000000000000000000 ) ) ;
#78 = APPLICATION_PROTOCOL_DEFINITION ( 'draft international standard', 'automotive_design', 1998, #6 ) ;
#79 = COLOUR_RGB ( '',1.000000000000000000, 1.000000000000000000, 1.000000000000000000 ) ;
#80 = APPLICATION_CONTEXT ( 'automotive_design' ) ;
#81 = AXIS2_PLACEMENT_3D ( 'NONE', #54, #135, #134 ) ;
#82 = CARTESIAN_POINT ( 'NONE',  ( 19.05000000000000100, 2.332952152375708000E-015, 0.0000000000000000000 ) ) ;
#83 =( LENGTH_UNIT ( ) NAMED_UNIT ( * ) SI_UNIT ( .MILLI., .METRE. ) );
#84 = EDGE_LOOP ( 'NONE', ( #97, #29, #67, #123 ) ) ;
#85 = APPLICATION_PROTOCOL_DEFINITION ( 'draft international standard', 'automotive_design', 1998, #80 ) ;
#86 = VERTEX_POINT ( 'NONE', #121 ) ;
#87 = VECTOR ( 'NONE', #120, 1000.000000000000000 ) ;
#88 = SURFACE_STYLE_FILL_AREA ( #7 ) ;
#89 =( LENGTH_UNIT ( ) NAMED_UNIT ( * ) SI_UNIT ( .MILLI., .METRE. ) );
#90 = CIRCLE ( 'NONE', #64, 19.05000000000000100 ) ;
#91 = AXIS2_PLACEMENT_3D ( 'NONE', #124, #133, #47 ) ;
#92 = PRODUCT_CONTEXT ( 'NONE', #80, 'mechanical' ) ;
#93 = CARTESIAN_POINT ( 'NONE',  ( 0.0000000000000000000, 0.0000000000000000000, 0.0000000000000000000 ) ) ;
#94 = DIRECTION ( 'NONE',  ( -0.0000000000000000000, -0.0000000000000000000, -1.000000000000000000 ) ) ;
#95 = FACE_OUTER_BOUND ( 'NONE', #1, .T. ) ;
#96 = FILL_AREA_STYLE_COLOUR ( '', #98 ) ;
#97 = ORIENTED_EDGE ( 'NONE', *, *, #116, .F. ) ;
#98 = COLOUR_RGB ( '',1.000000000000000000, 1.000000000000000000, 1.000000000000000000 ) ;
#99 = UNCERTAINTY_MEASURE_WITH_UNIT (LENGTH_MEASURE( 1.000000000000000100E-005 ), #83, 'distance_accuracy_value', 'NONE');
#100 = AXIS2_PLACEMENT_3D ( 'NONE', #65, #73, #131 ) ;
#101 = EDGE_LOOP ( 'NONE', ( #115, #137, #113, #32 ) ) ;
#102 = PRESENTATION_STYLE_ASSIGNMENT (( #57 ) ) ;
#103 = EDGE_CURVE ( 'NONE', #48, #51, #90, .T. ) ;
#104 = FACE_OUTER_BOUND ( 'NONE', #84, .T. ) ;
#105 =( GEOMETRIC_REPRESENTATION_CONTEXT ( 3 ) GLOBAL_UNCERTAINTY_ASSIGNED_CONTEXT ( ( #110 ) ) GLOBAL_UNIT_ASSIGNED_CONTEXT ( ( #74, #17, #66 ) ) REPRESENTATION_CONTEXT ( 'NONE', 'WORKASPACE' ) );
#106 = DIRECTION ( 'NONE',  ( -0.0000000000000000000, -0.0000000000000000000, -1.000000000000000000 ) ) ;
#107 = ORIENTED_EDGE ( 'NONE', *, *, #41, .F. ) ;
#108 = SHAPE_DEFINITION_REPRESENTATION ( #62, #138 ) ;
#109 = ADVANCED_FACE ( 'NONE', ( #95 ), #118, .T. ) ;
#110 = UNCERTAINTY_MEASURE_WITH_UNIT (LENGTH_MEASURE( 1.000000000000000100E-005 ), #74, 'distance_accuracy_value', 'NONE');
#111 = DIRECTION ( 'NONE',  ( 0.0000000000000000000, 0.0000000000000000000, 1.000000000000000000 ) ) ;
#112 = DIRECTION ( 'NONE',  ( -1.000000000000000000, 0.0000000000000000000, 0.0000000000000000000 ) ) ;
#113 = ORIENTED_EDGE ( 'NONE', *, *, #5, .T. ) ;
#114 = SURFACE_SIDE_STYLE ('',( #69 ) ) ;
#115 = ORIENTED_EDGE ( 'NONE', *, *, #55, .F. ) ;
#116 = EDGE_CURVE ( 'NONE', #51, #48, #10, .T. ) ;
#117 = ORIENTED_EDGE ( 'NONE', *, *, #116, .T. ) ;
#118 = PLANE ( 'NONE',  #91 ) ;
#119 = STYLED_ITEM ( 'NONE', ( #46 ), #138 ) ;
#120 = DIRECTION ( 'NONE',  ( -0.0000000000000000000, -0.0000000000000000000, -1.000000000000000000 ) ) ;
#121 = CARTESIAN_POINT ( 'NONE',  ( -19.05000000000000100, 0.0000000000000000000, 0.0000000000000000000 ) ) ;
#122 = CARTESIAN_POINT ( 'NONE',  ( 19.05000000000000100, 2.332952152375708000E-015, 10.00000000000000000 ) ) ;
#123 = ORIENTED_EDGE ( 'NONE', *, *, #5, .F. ) ;
#124 = CARTESIAN_POINT ( 'NONE',  ( 0.0000000000000000000, 0.0000000000000000000, 10.00000000000000000 ) ) ;
#125 =( NAMED_UNIT ( * ) SI_UNIT ( $, .STERADIAN. ) SOLID_ANGLE_UNIT ( ) );
#126 = DIRECTION ( 'NONE',  ( 1.000000000000000000, 0.0000000000000000000, 0.0000000000000000000 ) ) ;
#127 = VECTOR ( 'NONE', #128, 1000.000000000000000 ) ;
#128 = DIRECTION ( 'NONE',  ( -0.0000000000000000000, -0.0000000000000000000, -1.000000000000000000 ) ) ;
#129 =( NAMED_UNIT ( * ) PLANE_ANGLE_UNIT ( ) SI_UNIT ( $, .RADIAN. ) );
#130 = CIRCLE ( 'NONE', #100, 19.05000000000000100 ) ;
#131 = DIRECTION ( 'NONE',  ( 1.000000000000000000, 0.0000000000000000000, 0.0000000000000000000 ) ) ;
#132 = EDGE_CURVE ( 'NONE', #86, #12, #130, .T. ) ;
#133 = DIRECTION ( 'NONE',  ( 0.0000000000000000000, 0.0000000000000000000, 1.000000000000000000 ) ) ;
#134 = DIRECTION ( 'NONE',  ( 1.000000000000000000, 0.0000000000000000000, 0.0000000000000000000 ) ) ;
#135 = DIRECTION ( 'NONE',  ( 0.0000000000000000000, 0.0000000000000000000, 1.000000000000000000 ) ) ;
#136 = PRESENTATION_LAYER_ASSIGNMENT (  '', '', ( #119 ) ) ;
#137 = ORIENTED_EDGE ( 'NONE', *, *, #103, .F. ) ;
#138 = ADVANCED_BREP_SHAPE_REPRESENTATION ( '185008', ( #60, #30 ), #105 ) ;
#139 = DIRECTION ( 'NONE',  ( 1.000000000000000000, 0.0000000000000000000, 0.0000000000000000000 ) ) ;
#140 = DIRECTION ( 'NONE',  ( 1.000000000000000000, 0.0000000000000000000, 0.0000000000000000000 ) ) ;
ENDSEC;
END-ISO-10303-21;
