ISO-10303-21;
HEADER;
FILE_DESCRIPTION (( 'STEP AP214' ),
    '1' );
FILE_NAME ('185007.STEP',
    '2019-07-12T01:45:57',
    ( 'user' ),
    ( 'Î¢ÈíÖÐ¹ú' ),
    'SwSTEP 2.0',
    'SolidWorks 2016',
    '' );
FILE_SCHEMA (( 'AUTOMOTIVE_DESIGN' ));
ENDSEC;

DATA;
#1 = UNCERTAINTY_MEASURE_WITH_UNIT (LENGTH_MEASURE( 1.000000000000000100E-005 ), #130, 'distance_accuracy_value', 'NONE');
#2 = COLOUR_RGB ( '',1.000000000000000000, 1.000000000000000000, 1.000000000000000000 ) ;
#3 = MECHANICAL_DESIGN_GEOMETRIC_PRESENTATION_REPRESENTATION (  '', ( #95 ), #59 ) ;
#4 = MECHANICAL_DESIGN_GEOMETRIC_PRESENTATION_REPRESENTATION (  '', ( #131 ), #16 ) ;
#5 = PLANE ( 'NONE',  #14 ) ;
#6 = AXIS2_PLACEMENT_3D ( 'NONE', #34, #57, #87 ) ;
#7 = APPLICATION_PROTOCOL_DEFINITION ( 'draft international standard', 'automotive_design', 1998, #68 ) ;
#8 = CARTESIAN_POINT ( 'NONE',  ( 0.0000000000000000000, 0.0000000000000000000, 6.000000000000000000 ) ) ;
#9 = PRODUCT_DEFINITION_CONTEXT ( 'detailed design', #24, 'design' ) ;
#10 = DIRECTION ( 'NONE',  ( 0.0000000000000000000, 0.0000000000000000000, 1.000000000000000000 ) ) ;
#11 = SURFACE_SIDE_STYLE ('',( #102 ) ) ;
#12 = CIRCLE ( 'NONE', #104, 15.00000000000000000 ) ;
#13 = LINE ( 'NONE', #134, #110 ) ;
#14 = AXIS2_PLACEMENT_3D ( 'NONE', #29, #67, #50 ) ;
#15 = PRESENTATION_STYLE_ASSIGNMENT (( #43 ) ) ;
#16 =( GEOMETRIC_REPRESENTATION_CONTEXT ( 3 ) GLOBAL_UNCERTAINTY_ASSIGNED_CONTEXT ( ( #1 ) ) GLOBAL_UNIT_ASSIGNED_CONTEXT ( ( #130, #61, #121 ) ) REPRESENTATION_CONTEXT ( 'NONE', 'WORKASPACE' ) );
#17 = DIRECTION ( 'NONE',  ( -0.0000000000000000000, -0.0000000000000000000, -1.000000000000000000 ) ) ;
#18 = PLANE ( 'NONE',  #83 ) ;
#19 = PRESENTATION_STYLE_ASSIGNMENT (( #96 ) ) ;
#20 = FACE_OUTER_BOUND ( 'NONE', #75, .T. ) ;
#21 = ORIENTED_EDGE ( 'NONE', *, *, #115, .T. ) ;
#22 = CARTESIAN_POINT ( 'NONE',  ( 0.0000000000000000000, 0.0000000000000000000, 0.0000000000000000000 ) ) ;
#23 = CIRCLE ( 'NONE', #92, 15.00000000000000000 ) ;
#24 = APPLICATION_CONTEXT ( 'automotive_design' ) ;
#25 = ORIENTED_EDGE ( 'NONE', *, *, #80, .T. ) ;
#26 = ADVANCED_FACE ( 'NONE', ( #138 ), #5, .T. ) ;
#27 = CLOSED_SHELL ( 'NONE', ( #81, #123, #26, #65 ) ) ;
#28 = ORIENTED_EDGE ( 'NONE', *, *, #62, .F. ) ;
#29 = CARTESIAN_POINT ( 'NONE',  ( 0.0000000000000000000, 0.0000000000000000000, 6.000000000000000000 ) ) ;
#30 = DIRECTION ( 'NONE',  ( 0.0000000000000000000, 0.0000000000000000000, 1.000000000000000000 ) ) ;
#31 = PRODUCT_DEFINITION_FORMATION_WITH_SPECIFIED_SOURCE ( 'ÈÎºÎ', '', #64, .NOT_KNOWN. ) ;
#32 = DIRECTION ( 'NONE',  ( -1.000000000000000000, 0.0000000000000000000, 0.0000000000000000000 ) ) ;
#33 = VERTEX_POINT ( 'NONE', #56 ) ;
#34 = CARTESIAN_POINT ( 'NONE',  ( 0.0000000000000000000, 0.0000000000000000000, 0.0000000000000000000 ) ) ;
#35 = VECTOR ( 'NONE', #119, 1000.000000000000000 ) ;
#36 = DIRECTION ( 'NONE',  ( 1.000000000000000000, 0.0000000000000000000, 0.0000000000000000000 ) ) ;
#37 = AXIS2_PLACEMENT_3D ( 'NONE', #58, #111, #36 ) ;
#38 = PRODUCT_RELATED_PRODUCT_CATEGORY ( 'part', '', ( #64 ) ) ;
#39 = DIRECTION ( 'NONE',  ( 1.000000000000000000, 0.0000000000000000000, 0.0000000000000000000 ) ) ;
#40 = FILL_AREA_STYLE_COLOUR ( '', #2 ) ;
#41 = CARTESIAN_POINT ( 'NONE',  ( 0.0000000000000000000, 0.0000000000000000000, 0.0000000000000000000 ) ) ;
#42 = CARTESIAN_POINT ( 'NONE',  ( -15.00000000000000000, 0.0000000000000000000, 6.000000000000000000 ) ) ;
#43 = SURFACE_STYLE_USAGE ( .BOTH. , #11 ) ;
#44 = COLOUR_RGB ( '',1.000000000000000000, 1.000000000000000000, 1.000000000000000000 ) ;
#45 = PRODUCT_DEFINITION ( 'Î´Öª', '', #31, #9 ) ;
#46 = SURFACE_STYLE_FILL_AREA ( #55 ) ;
#47 = EDGE_LOOP ( 'NONE', ( #118, #25 ) ) ;
#48 = VERTEX_POINT ( 'NONE', #72 ) ;
#49 = MANIFOLD_SOLID_BREP ( 'Í¹Ì¨-À­Éì1', #27 ) ;
#50 = DIRECTION ( 'NONE',  ( 1.000000000000000000, 0.0000000000000000000, -0.0000000000000000000 ) ) ;
#51 = CARTESIAN_POINT ( 'NONE',  ( 15.00000000000000000, 1.836970198721029600E-015, 0.0000000000000000000 ) ) ;
#52 = ORIENTED_EDGE ( 'NONE', *, *, #70, .T. ) ;
#53 = ORIENTED_EDGE ( 'NONE', *, *, #79, .T. ) ;
#54 = ORIENTED_EDGE ( 'NONE', *, *, #80, .F. ) ;
#55 = FILL_AREA_STYLE ('',( #40 ) ) ;
#56 = CARTESIAN_POINT ( 'NONE',  ( -15.00000000000000000, 0.0000000000000000000, 0.0000000000000000000 ) ) ;
#57 = DIRECTION ( 'NONE',  ( 0.0000000000000000000, 0.0000000000000000000, 1.000000000000000000 ) ) ;
#58 = CARTESIAN_POINT ( 'NONE',  ( 0.0000000000000000000, 0.0000000000000000000, 0.0000000000000000000 ) ) ;
#59 =( GEOMETRIC_REPRESENTATION_CONTEXT ( 3 ) GLOBAL_UNCERTAINTY_ASSIGNED_CONTEXT ( ( #85 ) ) GLOBAL_UNIT_ASSIGNED_CONTEXT ( ( #139, #129, #60 ) ) REPRESENTATION_CONTEXT ( 'NONE', 'WORKASPACE' ) );
#60 =( NAMED_UNIT ( * ) SI_UNIT ( $, .STERADIAN. ) SOLID_ANGLE_UNIT ( ) );
#61 =( NAMED_UNIT ( * ) PLANE_ANGLE_UNIT ( ) SI_UNIT ( $, .RADIAN. ) );
#62 = EDGE_CURVE ( 'NONE', #103, #48, #66, .T. ) ;
#63 = ADVANCED_BREP_SHAPE_REPRESENTATION ( '185007', ( #49, #37 ), #120 ) ;
#64 = PRODUCT ( '185007', '185007', '', ( #100 ) ) ;
#65 = ADVANCED_FACE ( 'NONE', ( #128 ), #18, .F. ) ;
#66 = CIRCLE ( 'NONE', #124, 15.00000000000000000 ) ;
#67 = DIRECTION ( 'NONE',  ( 0.0000000000000000000, 0.0000000000000000000, 1.000000000000000000 ) ) ;
#68 = APPLICATION_CONTEXT ( 'automotive_design' ) ;
#69 =( NAMED_UNIT ( * ) SI_UNIT ( $, .STERADIAN. ) SOLID_ANGLE_UNIT ( ) );
#70 = EDGE_CURVE ( 'NONE', #103, #33, #114, .T. ) ;
#71 = PRODUCT_DEFINITION_SHAPE ( 'NONE', 'NONE',  #45 ) ;
#72 = CARTESIAN_POINT ( 'NONE',  ( 15.00000000000000000, 1.836970198721029600E-015, 6.000000000000000000 ) ) ;
#73 = CARTESIAN_POINT ( 'NONE',  ( 0.0000000000000000000, 0.0000000000000000000, 6.000000000000000000 ) ) ;
#74 = DIRECTION ( 'NONE',  ( 1.000000000000000000, 0.0000000000000000000, -0.0000000000000000000 ) ) ;
#75 = EDGE_LOOP ( 'NONE', ( #109, #28, #52, #53 ) ) ;
#76 = FILL_AREA_STYLE ('',( #89 ) ) ;
#77 = UNCERTAINTY_MEASURE_WITH_UNIT (LENGTH_MEASURE( 1.000000000000000100E-005 ), #86, 'distance_accuracy_value', 'NONE');
#78 = ORIENTED_EDGE ( 'NONE', *, *, #101, .T. ) ;
#79 = EDGE_CURVE ( 'NONE', #33, #112, #84, .T. ) ;
#80 = EDGE_CURVE ( 'NONE', #48, #103, #23, .T. ) ;
#81 = ADVANCED_FACE ( 'NONE', ( #94 ), #122, .T. ) ;
#82 = EDGE_LOOP ( 'NONE', ( #54, #78, #21, #90 ) ) ;
#83 = AXIS2_PLACEMENT_3D ( 'NONE', #22, #137, #74 ) ;
#84 = CIRCLE ( 'NONE', #6, 15.00000000000000000 ) ;
#85 = UNCERTAINTY_MEASURE_WITH_UNIT (LENGTH_MEASURE( 1.000000000000000100E-005 ), #139, 'distance_accuracy_value', 'NONE');
#86 =( LENGTH_UNIT ( ) NAMED_UNIT ( * ) SI_UNIT ( .MILLI., .METRE. ) );
#87 = DIRECTION ( 'NONE',  ( 1.000000000000000000, 0.0000000000000000000, 0.0000000000000000000 ) ) ;
#88 = DIRECTION ( 'NONE',  ( 1.000000000000000000, 0.0000000000000000000, 0.0000000000000000000 ) ) ;
#89 = FILL_AREA_STYLE_COLOUR ( '', #44 ) ;
#90 = ORIENTED_EDGE ( 'NONE', *, *, #70, .F. ) ;
#91 = APPLICATION_PROTOCOL_DEFINITION ( 'draft international standard', 'automotive_design', 1998, #24 ) ;
#92 = AXIS2_PLACEMENT_3D ( 'NONE', #8, #30, #107 ) ;
#93 = ORIENTED_EDGE ( 'NONE', *, *, #115, .F. ) ;
#94 = FACE_OUTER_BOUND ( 'NONE', #82, .T. ) ;
#95 = STYLED_ITEM ( 'NONE', ( #15 ), #49 ) ;
#96 = SURFACE_STYLE_USAGE ( .BOTH. , #133 ) ;
#97 = CARTESIAN_POINT ( 'NONE',  ( 0.0000000000000000000, 0.0000000000000000000, 6.000000000000000000 ) ) ;
#98 = CYLINDRICAL_SURFACE ( 'NONE', #125, 15.00000000000000000 ) ;
#99 = CARTESIAN_POINT ( 'NONE',  ( 0.0000000000000000000, 0.0000000000000000000, 6.000000000000000000 ) ) ;
#100 = PRODUCT_CONTEXT ( 'NONE', #68, 'mechanical' ) ;
#101 = EDGE_CURVE ( 'NONE', #48, #112, #13, .T. ) ;
#102 = SURFACE_STYLE_FILL_AREA ( #76 ) ;
#103 = VERTEX_POINT ( 'NONE', #117 ) ;
#104 = AXIS2_PLACEMENT_3D ( 'NONE', #41, #108, #39 ) ;
#105 =( NAMED_UNIT ( * ) PLANE_ANGLE_UNIT ( ) SI_UNIT ( $, .RADIAN. ) );
#106 = DIRECTION ( 'NONE',  ( -0.0000000000000000000, -0.0000000000000000000, -1.000000000000000000 ) ) ;
#107 = DIRECTION ( 'NONE',  ( 1.000000000000000000, 0.0000000000000000000, 0.0000000000000000000 ) ) ;
#108 = DIRECTION ( 'NONE',  ( 0.0000000000000000000, 0.0000000000000000000, 1.000000000000000000 ) ) ;
#109 = ORIENTED_EDGE ( 'NONE', *, *, #101, .F. ) ;
#110 = VECTOR ( 'NONE', #17, 1000.000000000000000 ) ;
#111 = DIRECTION ( 'NONE',  ( 0.0000000000000000000, 0.0000000000000000000, 1.000000000000000000 ) ) ;
#112 = VERTEX_POINT ( 'NONE', #51 ) ;
#113 = AXIS2_PLACEMENT_3D ( 'NONE', #73, #127, #32 ) ;
#114 = LINE ( 'NONE', #42, #35 ) ;
#115 = EDGE_CURVE ( 'NONE', #112, #33, #12, .T. ) ;
#116 = SHAPE_DEFINITION_REPRESENTATION ( #71, #63 ) ;
#117 = CARTESIAN_POINT ( 'NONE',  ( -15.00000000000000000, 0.0000000000000000000, 6.000000000000000000 ) ) ;
#118 = ORIENTED_EDGE ( 'NONE', *, *, #62, .T. ) ;
#119 = DIRECTION ( 'NONE',  ( -0.0000000000000000000, -0.0000000000000000000, -1.000000000000000000 ) ) ;
#120 =( GEOMETRIC_REPRESENTATION_CONTEXT ( 3 ) GLOBAL_UNCERTAINTY_ASSIGNED_CONTEXT ( ( #77 ) ) GLOBAL_UNIT_ASSIGNED_CONTEXT ( ( #86, #105, #69 ) ) REPRESENTATION_CONTEXT ( 'NONE', 'WORKASPACE' ) );
#121 =( NAMED_UNIT ( * ) SI_UNIT ( $, .STERADIAN. ) SOLID_ANGLE_UNIT ( ) );
#122 = CYLINDRICAL_SURFACE ( 'NONE', #113, 15.00000000000000000 ) ;
#123 = ADVANCED_FACE ( 'NONE', ( #20 ), #98, .T. ) ;
#124 = AXIS2_PLACEMENT_3D ( 'NONE', #99, #10, #88 ) ;
#125 = AXIS2_PLACEMENT_3D ( 'NONE', #97, #106, #126 ) ;
#126 = DIRECTION ( 'NONE',  ( -1.000000000000000000, 0.0000000000000000000, 0.0000000000000000000 ) ) ;
#127 = DIRECTION ( 'NONE',  ( -0.0000000000000000000, -0.0000000000000000000, -1.000000000000000000 ) ) ;
#128 = FACE_OUTER_BOUND ( 'NONE', #132, .T. ) ;
#129 =( NAMED_UNIT ( * ) PLANE_ANGLE_UNIT ( ) SI_UNIT ( $, .RADIAN. ) );
#130 =( LENGTH_UNIT ( ) NAMED_UNIT ( * ) SI_UNIT ( .MILLI., .METRE. ) );
#131 = STYLED_ITEM ( 'NONE', ( #19 ), #63 ) ;
#132 = EDGE_LOOP ( 'NONE', ( #135, #93 ) ) ;
#133 = SURFACE_SIDE_STYLE ('',( #46 ) ) ;
#134 = CARTESIAN_POINT ( 'NONE',  ( 15.00000000000000000, 1.836970198721029600E-015, 6.000000000000000000 ) ) ;
#135 = ORIENTED_EDGE ( 'NONE', *, *, #79, .F. ) ;
#136 = PRESENTATION_LAYER_ASSIGNMENT (  '', '', ( #95 ) ) ;
#137 = DIRECTION ( 'NONE',  ( 0.0000000000000000000, 0.0000000000000000000, 1.000000000000000000 ) ) ;
#138 = FACE_OUTER_BOUND ( 'NONE', #47, .T. ) ;
#139 =( LENGTH_UNIT ( ) NAMED_UNIT ( * ) SI_UNIT ( .MILLI., .METRE. ) );
#140 = PRESENTATION_LAYER_ASSIGNMENT (  '', '', ( #131 ) ) ;
ENDSEC;
END-ISO-10303-21;
