ISO-10303-21;
HEADER;
FILE_DESCRIPTION (( 'STEP AP203' ),
    '1' );
FILE_NAME ('373503.STEP',
    '2019-07-24T07:31:17',
    ( '' ),
    ( '' ),
    'SwSTEP 2.0',
    'SolidWorks 2016',
    '' );
FILE_SCHEMA (( 'CONFIG_CONTROL_DESIGN' ));
ENDSEC;

DATA;
#1 = LINE ( 'NONE', #129, #159 ) ;
#2 = APPROVAL ( #138, 'Î´Ö¸¶¨' ) ;
#3 = ORIENTED_EDGE ( 'NONE', *, *, #191, .T. ) ;
#4 = PLANE ( 'NONE',  #201 ) ;
#5 = PERSON_AND_ORGANIZATION_ROLE ( 'design_owner' ) ;
#6 = UNCERTAINTY_MEASURE_WITH_UNIT (LENGTH_MEASURE( 1.000000000000000100E-005 ), #193, 'distance_accuracy_value', 'NONE');
#7 = DIRECTION ( 'NONE',  ( -0.0000000000000000000, -0.0000000000000000000, -1.000000000000000000 ) ) ;
#8 = PERSON_AND_ORGANIZATION_ROLE ( 'creator' ) ;
#9 = APPROVAL_ROLE ( '' ) ;
#10 = PERSON_AND_ORGANIZATION_ROLE ( 'creator' ) ;
#11 = CC_DESIGN_PERSON_AND_ORGANIZATION_ASSIGNMENT ( #33, #113, ( #186 ) ) ;
#12 = APPROVAL_PERSON_ORGANIZATION ( #252, #2, #173 ) ;
#13 = DATE_AND_TIME ( #28, #219 ) ;
#14 = PERSON_AND_ORGANIZATION ( #39, #88 ) ;
#15 = APPROVAL_DATE_TIME ( #67, #161 ) ;
#16 = PRODUCT_DEFINITION_SHAPE ( 'NONE', 'NONE',  #186 ) ;
#17 = PERSON_AND_ORGANIZATION ( #39, #88 ) ;
#18 = LINE ( 'NONE', #223, #49 ) ;
#19 = DATE_AND_TIME ( #83, #100 ) ;
#20 = CARTESIAN_POINT ( 'NONE',  ( -12.49999999999999600, 0.0000000000000000000, 6.371246861708559800 ) ) ;
#21 = CARTESIAN_POINT ( 'NONE',  ( -12.49999999999999600, 0.0000000000000000000, 6.371246861708559800 ) ) ;
#22 = CARTESIAN_POINT ( 'NONE',  ( 0.0000000000000000000, 0.0000000000000000000, 0.0000000000000000000 ) ) ;
#23 = CC_DESIGN_PERSON_AND_ORGANIZATION_ASSIGNMENT ( #14, #10, ( #62 ) ) ;
#24 = APPLICATION_PROTOCOL_DEFINITION ( 'international standard', 'config_control_design', 1994, #31 ) ;
#25 = DATE_AND_TIME ( #140, #189 ) ;
#26 = APPLICATION_PROTOCOL_DEFINITION ( 'international standard', 'config_control_design', 1994, #151 ) ;
#27 = VERTEX_POINT ( 'NONE', #188 ) ;
#28 = CALENDAR_DATE ( 2019, 24, 7 ) ;
#29 = APPLICATION_PROTOCOL_DEFINITION ( 'international standard', 'config_control_design', 1994, #114 ) ;
#30 = CC_DESIGN_APPROVAL ( #161, ( #199 ) ) ;
#31 = APPLICATION_CONTEXT ( 'configuration controlled 3d designs of mechanical parts and assemblies' ) ;
#32 = DIRECTION ( 'NONE',  ( -0.9910299093414926000, 0.0000000000000000000, 0.1336402588690730800 ) ) ;
#33 = PERSON_AND_ORGANIZATION ( #39, #88 ) ;
#34 = DATE_AND_TIME ( #164, #93 ) ;
#35 = ORIENTED_EDGE ( 'NONE', *, *, #127, .T. ) ;
#36 = AXIS2_PLACEMENT_3D ( 'NONE', #174, #94, #214 ) ;
#37 = CALENDAR_DATE ( 2019, 24, 7 ) ;
#38 =( BOUNDED_CURVE ( )  B_SPLINE_CURVE ( 3, ( #21, #126, #48, #46 ),
 .UNSPECIFIED., .F., .T. ) 
 B_SPLINE_CURVE_WITH_KNOTS ( ( 4, 4 ),
 ( 3.141592653589793100, 6.283185307179586200 ),
 .UNSPECIFIED. ) 
 CURVE ( )  GEOMETRIC_REPRESENTATION_ITEM ( )  RATIONAL_B_SPLINE_CURVE ( ( 1.000000000000000000, 0.3333333333333333700, 0.3333333333333333700, 1.000000000000000000 ) ) 
 REPRESENTATION_ITEM ( '' )  );
#39 = PERSON ( 'Î´Ö¸¶¨', 'Î´Ö¸¶¨', 'Î´Ö¸¶¨', ('Î´Ö¸¶¨'), ('Î´Ö¸¶¨'), ('Î´Ö¸¶¨') ) ;
#40 = SECURITY_CLASSIFICATION ( '', '', #194 ) ;
#41 = LOCAL_TIME ( 15, 31, 17.00000000000000000, #221 ) ;
#42 = CC_DESIGN_PERSON_AND_ORGANIZATION_ASSIGNMENT ( #222, #136, ( #62 ) ) ;
#43 = VERTEX_POINT ( 'NONE', #20 ) ;
#44 = PRODUCT ( '373503', '373503', '', ( #56 ) ) ;
#45 = EDGE_CURVE ( 'NONE', #43, #211, #1, .T. ) ;
#46 = CARTESIAN_POINT ( 'NONE',  ( 12.49999999999999600, 1.530808498934191100E-015, 3.000000000000000000 ) ) ;
#47 = AXIS2_PLACEMENT_3D ( 'NONE', #208, #239, #108 ) ;
#48 = CARTESIAN_POINT ( 'NONE',  ( 12.50000000000000000, 24.99999999999998900, 3.000000000000000400 ) ) ;
#49 = VECTOR ( 'NONE', #206, 1000.000000000000000 ) ;
#50 = APPROVAL_STATUS ( 'not_yet_approved' ) ;
#51 = COORDINATED_UNIVERSAL_TIME_OFFSET ( 8, 0, .AHEAD. ) ;
#52 = PRODUCT_RELATED_PRODUCT_CATEGORY ( 'detail', '', ( #63 ) ) ;
#53 = APPLICATION_PROTOCOL_DEFINITION ( 'international standard', 'config_control_design', 1994, #168 ) ;
#54 = CARTESIAN_POINT ( 'NONE',  ( 12.49999999999999600, 1.530808498934191100E-015, 3.000000000000000000 ) ) ;
#55 = APPROVAL_ROLE ( '' ) ;
#56 = MECHANICAL_CONTEXT ( 'NONE', #151, 'mechanical' ) ;
#57 = ORIENTED_EDGE ( 'NONE', *, *, #87, .T. ) ;
#58 = COORDINATED_UNIVERSAL_TIME_OFFSET ( 8, 0, .AHEAD. ) ;
#59 = APPROVAL ( #241, 'Î´Ö¸¶¨' ) ;
#60 = FACE_OUTER_BOUND ( 'NONE', #145, .T. ) ;
#61 = EDGE_LOOP ( 'NONE', ( #192, #120 ) ) ;
#62 = PRODUCT_DEFINITION_FORMATION_WITH_SPECIFIED_SOURCE ( 'ÈÎºÎ', '', #63, .NOT_KNOWN. ) ;
#63 = PRODUCT ( '373503', '373503', '', ( #91 ) ) ;
#64 = CC_DESIGN_PERSON_AND_ORGANIZATION_ASSIGNMENT ( #146, #190, ( #44 ) ) ;
#65 = SHAPE_DEFINITION_REPRESENTATION ( #183, #243 ) ;
#66 = ORIENTED_EDGE ( 'NONE', *, *, #45, .T. ) ;
#67 = DATE_AND_TIME ( #180, #139 ) ;
#68 = CC_DESIGN_SECURITY_CLASSIFICATION ( #40, ( #106 ) ) ;
#69 = COORDINATED_UNIVERSAL_TIME_OFFSET ( 8, 0, .AHEAD. ) ;
#70 = APPROVAL_ROLE ( '' ) ;
#71 = DIRECTION ( 'NONE',  ( 0.0000000000000000000, 0.0000000000000000000, 1.000000000000000000 ) ) ;
#72 =( NAMED_UNIT ( * ) PLANE_ANGLE_UNIT ( ) SI_UNIT ( $, .RADIAN. ) );
#73 = PLANE ( 'NONE',  #84 ) ;
#74 = CARTESIAN_POINT ( 'NONE',  ( 12.49999999999999600, 1.530808498934191100E-015, 3.000000000000000000 ) ) ;
#75 = PERSON_AND_ORGANIZATION_ROLE ( 'classification_officer' ) ;
#76 = EDGE_CURVE ( 'NONE', #43, #162, #38, .T. ) ;
#77 = APPROVAL_STATUS ( 'not_yet_approved' ) ;
#78 = AXIS2_PLACEMENT_3D ( 'NONE', #133, #7, #170 ) ;
#79 = COORDINATED_UNIVERSAL_TIME_OFFSET ( 8, 0, .AHEAD. ) ;
#80 = CYLINDRICAL_SURFACE ( 'NONE', #78, 12.49999999999999600 ) ;
#81 = ADVANCED_FACE ( 'NONE', ( #109 ), #215, .T. ) ;
#82 = CC_DESIGN_DATE_AND_TIME_ASSIGNMENT ( #253, #210, ( #218 ) ) ;
#83 = CALENDAR_DATE ( 2019, 24, 7 ) ;
#84 = AXIS2_PLACEMENT_3D ( 'NONE', #246, #195, #32 ) ;
#85 = COORDINATED_UNIVERSAL_TIME_OFFSET ( 8, 0, .AHEAD. ) ;
#86 = COORDINATED_UNIVERSAL_TIME_OFFSET ( 8, 0, .AHEAD. ) ;
#87 = EDGE_CURVE ( 'NONE', #162, #27, #18, .T. ) ;
#88 = ORGANIZATION ( 'Î´Ö¸¶¨', 'Î´Ö¸¶¨', '' ) ;
#89 = PERSON_AND_ORGANIZATION ( #39, #88 ) ;
#90 = PERSON_AND_ORGANIZATION ( #39, #88 ) ;
#91 = MECHANICAL_CONTEXT ( 'NONE', #31, 'mechanical' ) ;
#92 = DATE_AND_TIME ( #101, #228 ) ;
#93 = LOCAL_TIME ( 15, 31, 17.00000000000000000, #200 ) ;
#94 = DIRECTION ( 'NONE',  ( 0.0000000000000000000, 0.0000000000000000000, 1.000000000000000000 ) ) ;
#95 = ORIENTED_EDGE ( 'NONE', *, *, #76, .T. ) ;
#96 = PERSON_AND_ORGANIZATION ( #39, #88 ) ;
#97 = PERSON_AND_ORGANIZATION ( #39, #88 ) ;
#98 = DIRECTION ( 'NONE',  ( 0.0000000000000000000, 0.0000000000000000000, 1.000000000000000000 ) ) ;
#99 = PERSON_AND_ORGANIZATION_ROLE ( 'creator' ) ;
#100 = LOCAL_TIME ( 15, 31, 17.00000000000000000, #123 ) ;
#101 = CALENDAR_DATE ( 2019, 24, 7 ) ;
#102 = ORIENTED_EDGE ( 'NONE', *, *, #104, .F. ) ;
#103 = CC_DESIGN_APPROVAL ( #59, ( #62 ) ) ;
#104 = EDGE_CURVE ( 'NONE', #27, #211, #181, .T. ) ;
#105 = EDGE_LOOP ( 'NONE', ( #95, #57, #240, #134 ) ) ;
#106 = PRODUCT_DEFINITION_FORMATION_WITH_SPECIFIED_SOURCE ( 'ÈÎºÎ', '', #44, .NOT_KNOWN. ) ;
#107 = DIRECTION ( 'NONE',  ( -0.0000000000000000000, -0.0000000000000000000, -1.000000000000000000 ) ) ;
#108 = DIRECTION ( 'NONE',  ( 1.000000000000000000, 0.0000000000000000000, 0.0000000000000000000 ) ) ;
#109 = FACE_OUTER_BOUND ( 'NONE', #105, .T. ) ;
#110 = CC_DESIGN_APPROVAL ( #220, ( #186 ) ) ;
#111 = LOCAL_TIME ( 15, 31, 17.00000000000000000, #58 ) ;
#112 = DIRECTION ( 'NONE',  ( -1.000000000000000000, 0.0000000000000000000, 0.0000000000000000000 ) ) ;
#113 = PERSON_AND_ORGANIZATION_ROLE ( 'creator' ) ;
#114 = APPLICATION_CONTEXT ( 'configuration controlled 3d designs of mechanical parts and assemblies' ) ;
#115 = DATE_TIME_ROLE ( 'classification_date' ) ;
#116 = CC_DESIGN_APPROVAL ( #235, ( #218 ) ) ;
#117 =( NAMED_UNIT ( * ) SI_UNIT ( $, .STERADIAN. ) SOLID_ANGLE_UNIT ( ) );
#118 = CALENDAR_DATE ( 2019, 24, 7 ) ;
#119 = APPROVAL_DATE_TIME ( #34, #220 ) ;
#120 = ORIENTED_EDGE ( 'NONE', *, *, #191, .F. ) ;
#121 = CC_DESIGN_SECURITY_CLASSIFICATION ( #199, ( #62 ) ) ;
#122 = APPROVAL_PERSON_ORGANIZATION ( #155, #59, #238 ) ;
#123 = COORDINATED_UNIVERSAL_TIME_OFFSET ( 8, 0, .AHEAD. ) ;
#124 =( GEOMETRIC_REPRESENTATION_CONTEXT ( 3 ) GLOBAL_UNCERTAINTY_ASSIGNED_CONTEXT ( ( #6 ) ) GLOBAL_UNIT_ASSIGNED_CONTEXT ( ( #193, #72, #117 ) ) REPRESENTATION_CONTEXT ( 'NONE', 'WORKASPACE' ) );
#125 = MANIFOLD_SOLID_BREP ( 'ÇÐ³ý-À­Éì1', #158 ) ;
#126 = CARTESIAN_POINT ( 'NONE',  ( -12.50000000000000000, 24.99999999999998900, 6.371246861708561600 ) ) ;
#127 = EDGE_CURVE ( 'NONE', #211, #27, #249, .T. ) ;
#128 = PERSON_AND_ORGANIZATION ( #39, #88 ) ;
#129 = CARTESIAN_POINT ( 'NONE',  ( -12.49999999999999600, 0.0000000000000000000, 10.00000000000000000 ) ) ;
#130 = DIRECTION ( 'NONE',  ( -0.0000000000000000000, -0.0000000000000000000, -1.000000000000000000 ) ) ;
#131 = DATE_TIME_ROLE ( 'creation_date' ) ;
#132 = LOCAL_TIME ( 15, 31, 17.00000000000000000, #79 ) ;
#133 = CARTESIAN_POINT ( 'NONE',  ( 0.0000000000000000000, 0.0000000000000000000, 10.00000000000000000 ) ) ;
#134 = ORIENTED_EDGE ( 'NONE', *, *, #45, .F. ) ;
#135 = APPROVAL ( #242, 'Î´Ö¸¶¨' ) ;
#136 = PERSON_AND_ORGANIZATION_ROLE ( 'design_supplier' ) ;
#137 = APPROVAL_PERSON_ORGANIZATION ( #187, #235, #70 ) ;
#138 = APPROVAL_STATUS ( 'not_yet_approved' ) ;
#139 = LOCAL_TIME ( 15, 31, 17.00000000000000000, #184 ) ;
#140 = CALENDAR_DATE ( 2019, 24, 7 ) ;
#141 = CC_DESIGN_DATE_AND_TIME_ASSIGNMENT ( #25, #131, ( #186 ) ) ;
#142 = ADVANCED_FACE ( 'NONE', ( #60 ), #4, .F. ) ;
#143 = ADVANCED_FACE ( 'NONE', ( #150 ), #80, .T. ) ;
#144 = CC_DESIGN_PERSON_AND_ORGANIZATION_ASSIGNMENT ( #96, #75, ( #40 ) ) ;
#145 = EDGE_LOOP ( 'NONE', ( #236, #102 ) ) ;
#146 = PERSON_AND_ORGANIZATION ( #39, #88 ) ;
#147 = PERSON_AND_ORGANIZATION ( #39, #88 ) ;
#148 = CARTESIAN_POINT ( 'NONE',  ( 0.0000000000000000000, 0.0000000000000000000, 0.0000000000000000000 ) ) ;
#149 = CC_DESIGN_DATE_AND_TIME_ASSIGNMENT ( #92, #232, ( #199 ) ) ;
#150 = FACE_OUTER_BOUND ( 'NONE', #198, .T. ) ;
#151 = APPLICATION_CONTEXT ( 'configuration controlled 3d designs of mechanical parts and assemblies' ) ;
#152 =( BOUNDED_CURVE ( )  B_SPLINE_CURVE ( 3, ( #74, #229, #154, #171 ),
 .UNSPECIFIED., .F., .T. ) 
 B_SPLINE_CURVE_WITH_KNOTS ( ( 4, 4 ),
 ( 0.0000000000000000000, 3.141592653589793100 ),
 .UNSPECIFIED. ) 
 CURVE ( )  GEOMETRIC_REPRESENTATION_ITEM ( )  RATIONAL_B_SPLINE_CURVE ( ( 1.000000000000000000, 0.3333333333333333700, 0.3333333333333333700, 1.000000000000000000 ) ) 
 REPRESENTATION_ITEM ( '' )  );
#153 = PERSON_AND_ORGANIZATION_ROLE ( 'design_supplier' ) ;
#154 = CARTESIAN_POINT ( 'NONE',  ( -12.49999999999999500, -24.99999999999998900, 6.371246861708561600 ) ) ;
#155 = PERSON_AND_ORGANIZATION ( #39, #88 ) ;
#156 = APPROVAL_DATE_TIME ( #225, #135 ) ;
#157 = AXIS2_PLACEMENT_3D ( 'NONE', #22, #204, #165 ) ;
#158 = CLOSED_SHELL ( 'NONE', ( #81, #143, #142, #233 ) ) ;
#159 = VECTOR ( 'NONE', #130, 1000.000000000000000 ) ;
#160 = CC_DESIGN_APPROVAL ( #135, ( #106 ) ) ;
#161 = APPROVAL ( #50, 'Î´Ö¸¶¨' ) ;
#162 = VERTEX_POINT ( 'NONE', #54 ) ;
#163 = CARTESIAN_POINT ( 'NONE',  ( 0.0000000000000000000, 0.0000000000000000000, 10.00000000000000000 ) ) ;
#164 = CALENDAR_DATE ( 2019, 24, 7 ) ;
#165 = DIRECTION ( 'NONE',  ( 1.000000000000000000, 0.0000000000000000000, 0.0000000000000000000 ) ) ;
#166 = SECURITY_CLASSIFICATION_LEVEL ( 'unclassified' ) ;
#167 = CARTESIAN_POINT ( 'NONE',  ( -12.49999999999999600, 0.0000000000000000000, 0.0000000000000000000 ) ) ;
#168 = APPLICATION_CONTEXT ( 'configuration controlled 3d designs of mechanical parts and assemblies' ) ;
#169 = APPROVAL_PERSON_ORGANIZATION ( #234, #161, #55 ) ;
#170 = DIRECTION ( 'NONE',  ( -1.000000000000000000, 0.0000000000000000000, 0.0000000000000000000 ) ) ;
#171 = CARTESIAN_POINT ( 'NONE',  ( -12.49999999999999600, 0.0000000000000000000, 6.371246861708559800 ) ) ;
#172 = APPROVAL_DATE_TIME ( #178, #2 ) ;
#173 = APPROVAL_ROLE ( '' ) ;
#174 = CARTESIAN_POINT ( 'NONE',  ( 0.0000000000000000000, 0.0000000000000000000, 0.0000000000000000000 ) ) ;
#175 = DESIGN_CONTEXT ( 'detailed design', #114, 'design' ) ;
#176 = PERSON_AND_ORGANIZATION ( #39, #88 ) ;
#177 = CC_DESIGN_PERSON_AND_ORGANIZATION_ASSIGNMENT ( #97, #8, ( #106 ) ) ;
#178 = DATE_AND_TIME ( #37, #217 ) ;
#179 = APPROVAL_PERSON_ORGANIZATION ( #147, #135, #9 ) ;
#180 = CALENDAR_DATE ( 2019, 24, 7 ) ;
#181 = CIRCLE ( 'NONE', #157, 12.49999999999999600 ) ;
#182 = CALENDAR_DATE ( 2019, 24, 7 ) ;
#183 = PRODUCT_DEFINITION_SHAPE ( 'NONE', 'NONE',  #218 ) ;
#184 = COORDINATED_UNIVERSAL_TIME_OFFSET ( 8, 0, .AHEAD. ) ;
#185 = ORIENTED_EDGE ( 'NONE', *, *, #87, .F. ) ;
#186 = PRODUCT_DEFINITION ( 'Î´Öª', '', #62, #175 ) ;
#187 = PERSON_AND_ORGANIZATION ( #39, #88 ) ;
#188 = CARTESIAN_POINT ( 'NONE',  ( 12.49999999999999600, 1.530808498934191100E-015, 0.0000000000000000000 ) ) ;
#189 = LOCAL_TIME ( 15, 31, 17.00000000000000000, #85 ) ;
#190 = PERSON_AND_ORGANIZATION_ROLE ( 'design_owner' ) ;
#191 = EDGE_CURVE ( 'NONE', #162, #43, #152, .T. ) ;
#192 = ORIENTED_EDGE ( 'NONE', *, *, #76, .F. ) ;
#193 =( LENGTH_UNIT ( ) NAMED_UNIT ( * ) SI_UNIT ( .MILLI., .METRE. ) );
#194 = SECURITY_CLASSIFICATION_LEVEL ( 'unclassified' ) ;
#195 = DIRECTION ( 'NONE',  ( -0.1336402588690731000, 0.0000000000000000000, -0.9910299093414927100 ) ) ;
#196 = APPROVAL_DATE_TIME ( #19, #235 ) ;
#197 = PRODUCT_RELATED_PRODUCT_CATEGORY ( 'detail', '', ( #44 ) ) ;
#198 = EDGE_LOOP ( 'NONE', ( #185, #3, #66, #35 ) ) ;
#199 = SECURITY_CLASSIFICATION ( '', '', #166 ) ;
#200 = COORDINATED_UNIVERSAL_TIME_OFFSET ( 8, 0, .AHEAD. ) ;
#201 = AXIS2_PLACEMENT_3D ( 'NONE', #148, #71, #237 ) ;
#202 = DESIGN_CONTEXT ( 'detailed design', #168, 'design' ) ;
#203 = APPROVAL_DATE_TIME ( #251, #59 ) ;
#204 = DIRECTION ( 'NONE',  ( 0.0000000000000000000, 0.0000000000000000000, 1.000000000000000000 ) ) ;
#205 = CC_DESIGN_DATE_AND_TIME_ASSIGNMENT ( #13, #115, ( #40 ) ) ;
#206 = DIRECTION ( 'NONE',  ( -0.0000000000000000000, -0.0000000000000000000, -1.000000000000000000 ) ) ;
#207 = AXIS2_PLACEMENT_3D ( 'NONE', #227, #98, #231 ) ;
#208 = CARTESIAN_POINT ( 'NONE',  ( 0.0000000000000000000, 0.0000000000000000000, 0.0000000000000000000 ) ) ;
#209 = APPROVAL_PERSON_ORGANIZATION ( #128, #220, #212 ) ;
#210 = DATE_TIME_ROLE ( 'creation_date' ) ;
#211 = VERTEX_POINT ( 'NONE', #167 ) ;
#212 = APPROVAL_ROLE ( '' ) ;
#213 = CC_DESIGN_PERSON_AND_ORGANIZATION_ASSIGNMENT ( #176, #230, ( #199 ) ) ;
#214 = DIRECTION ( 'NONE',  ( 1.000000000000000000, 0.0000000000000000000, 0.0000000000000000000 ) ) ;
#215 = CYLINDRICAL_SURFACE ( 'NONE', #244, 12.49999999999999600 ) ;
#216 = CC_DESIGN_APPROVAL ( #2, ( #40 ) ) ;
#217 = LOCAL_TIME ( 15, 31, 17.00000000000000000, #51 ) ;
#218 = PRODUCT_DEFINITION ( 'Î´Öª', '', #106, #202 ) ;
#219 = LOCAL_TIME ( 15, 31, 17.00000000000000000, #86 ) ;
#220 = APPROVAL ( #245, 'Î´Ö¸¶¨' ) ;
#221 = COORDINATED_UNIVERSAL_TIME_OFFSET ( 8, 0, .AHEAD. ) ;
#222 = PERSON_AND_ORGANIZATION ( #39, #88 ) ;
#223 = CARTESIAN_POINT ( 'NONE',  ( 12.49999999999999600, 1.530808498934191100E-015, 10.00000000000000000 ) ) ;
#224 = FACE_OUTER_BOUND ( 'NONE', #61, .T. ) ;
#225 = DATE_AND_TIME ( #182, #41 ) ;
#226 = CC_DESIGN_PERSON_AND_ORGANIZATION_ASSIGNMENT ( #17, #5, ( #63 ) ) ;
#227 = CARTESIAN_POINT ( 'NONE',  ( 0.0000000000000000000, 0.0000000000000000000, 0.0000000000000000000 ) ) ;
#228 = LOCAL_TIME ( 15, 31, 17.00000000000000000, #69 ) ;
#229 = CARTESIAN_POINT ( 'NONE',  ( 12.50000000000000000, -24.99999999999998900, 3.000000000000000400 ) ) ;
#230 = PERSON_AND_ORGANIZATION_ROLE ( 'classification_officer' ) ;
#231 = DIRECTION ( 'NONE',  ( 1.000000000000000000, 0.0000000000000000000, 0.0000000000000000000 ) ) ;
#232 = DATE_TIME_ROLE ( 'classification_date' ) ;
#233 = ADVANCED_FACE ( 'NONE', ( #224 ), #73, .F. ) ;
#234 = PERSON_AND_ORGANIZATION ( #39, #88 ) ;
#235 = APPROVAL ( #77, 'Î´Ö¸¶¨' ) ;
#236 = ORIENTED_EDGE ( 'NONE', *, *, #127, .F. ) ;
#237 = DIRECTION ( 'NONE',  ( 1.000000000000000000, 0.0000000000000000000, -0.0000000000000000000 ) ) ;
#238 = APPROVAL_ROLE ( '' ) ;
#239 = DIRECTION ( 'NONE',  ( 0.0000000000000000000, 0.0000000000000000000, 1.000000000000000000 ) ) ;
#240 = ORIENTED_EDGE ( 'NONE', *, *, #104, .T. ) ;
#241 = APPROVAL_STATUS ( 'not_yet_approved' ) ;
#242 = APPROVAL_STATUS ( 'not_yet_approved' ) ;
#243 = ADVANCED_BREP_SHAPE_REPRESENTATION ( '373503', ( #125, #207 ), #124 ) ;
#244 = AXIS2_PLACEMENT_3D ( 'NONE', #163, #107, #112 ) ;
#245 = APPROVAL_STATUS ( 'not_yet_approved' ) ;
#246 = CARTESIAN_POINT ( 'NONE',  ( 12.49999999999999600, -25.00000000000000000, 3.000000000000000000 ) ) ;
#247 = CALENDAR_DATE ( 2019, 24, 7 ) ;
#248 = CC_DESIGN_PERSON_AND_ORGANIZATION_ASSIGNMENT ( #89, #153, ( #106 ) ) ;
#249 = CIRCLE ( 'NONE', #47, 12.49999999999999600 ) ;
#250 = CC_DESIGN_PERSON_AND_ORGANIZATION_ASSIGNMENT ( #90, #99, ( #218 ) ) ;
#251 = DATE_AND_TIME ( #247, #132 ) ;
#252 = PERSON_AND_ORGANIZATION ( #39, #88 ) ;
#253 = DATE_AND_TIME ( #118, #111 ) ;
ENDSEC;
END-ISO-10303-21;
