ISO-10303-21;
HEADER;
FILE_DESCRIPTION (( 'STEP AP203' ),
    '1' );
FILE_NAME ('355507.STEP',
    '2019-07-22T06:05:44',
    ( '' ),
    ( '' ),
    'SwSTEP 2.0',
    'SolidWorks 2016',
    '' );
FILE_SCHEMA (( 'CONFIG_CONTROL_DESIGN' ));
ENDSEC;

DATA;
#1 = EDGE_CURVE ( 'NONE', #32, #88, #265, .T. ) ;
#2 = APPROVAL_DATE_TIME ( #161, #270 ) ;
#3 = EDGE_LOOP ( 'NONE', ( #241, #178, #79 ) ) ;
#4 = ADVANCED_FACE ( 'NONE', ( #277 ), #6, .T. ) ;
#5 = LOCAL_TIME ( 14, 5, 44.00000000000000000, #183 ) ;
#6 = PLANE ( 'NONE',  #174 ) ;
#7 = CARTESIAN_POINT ( 'NONE',  ( 69.88562548436229300, 53.11162809612241600, 0.0000000000000000000 ) ) ;
#8 = PERSON_AND_ORGANIZATION ( #263, #109 ) ;
#9 = ORIENTED_EDGE ( 'NONE', *, *, #1, .T. ) ;
#10 = CARTESIAN_POINT ( 'NONE',  ( 49.88562548436229300, 53.11162809612241600, 0.0000000000000000000 ) ) ;
#11 = PERSON_AND_ORGANIZATION_ROLE ( 'creator' ) ;
#12 = APPROVAL_PERSON_ORGANIZATION ( #224, #270, #58 ) ;
#13 = CARTESIAN_POINT ( 'NONE',  ( 49.88562548436229300, 53.11162809612241600, 20.00000000000000000 ) ) ;
#14 = CARTESIAN_POINT ( 'NONE',  ( 0.0000000000000000000, 0.0000000000000000000, 0.0000000000000000000 ) ) ;
#15 = CALENDAR_DATE ( 2019, 22, 7 ) ;
#16 = DATE_AND_TIME ( #103, #5 ) ;
#17 = VERTEX_POINT ( 'NONE', #53 ) ;
#18 = ORIENTED_EDGE ( 'NONE', *, *, #158, .F. ) ;
#19 = PERSON_AND_ORGANIZATION ( #263, #109 ) ;
#20 = VECTOR ( 'NONE', #51, 1000.000000000000000 ) ;
#21 = SECURITY_CLASSIFICATION ( '', '', #41 ) ;
#22 = ADVANCED_FACE ( 'NONE', ( #74 ), #71, .F. ) ;
#23 = CC_DESIGN_PERSON_AND_ORGANIZATION_ASSIGNMENT ( #188, #81, ( #179 ) ) ;
#24 = ORIENTED_EDGE ( 'NONE', *, *, #1, .F. ) ;
#25 = CALENDAR_DATE ( 2019, 22, 7 ) ;
#26 = VECTOR ( 'NONE', #122, 1000.000000000000000 ) ;
#27 = AXIS2_PLACEMENT_3D ( 'NONE', #13, #38, #207 ) ;
#28 = DIRECTION ( 'NONE',  ( 0.0000000000000000000, 0.0000000000000000000, -1.000000000000000000 ) ) ;
#29 = CARTESIAN_POINT ( 'NONE',  ( 69.88562548436229300, 53.11162809612241600, 20.00000000000000000 ) ) ;
#30 = CC_DESIGN_APPROVAL ( #63, ( #152 ) ) ;
#31 = APPROVAL_STATUS ( 'not_yet_approved' ) ;
#32 = VERTEX_POINT ( 'NONE', #29 ) ;
#33 = APPROVAL_ROLE ( '' ) ;
#34 = AXIS2_PLACEMENT_3D ( 'NONE', #14, #167, #60 ) ;
#35 = DIRECTION ( 'NONE',  ( 0.0000000000000000000, -0.0000000000000000000, -1.000000000000000000 ) ) ;
#36 = COORDINATED_UNIVERSAL_TIME_OFFSET ( 8, 0, .AHEAD. ) ;
#37 = LINE ( 'NONE', #163, #198 ) ;
#38 = DIRECTION ( 'NONE',  ( -0.7071067811865475700, 0.7071067811865475700, 0.0000000000000000000 ) ) ;
#39 = DATE_AND_TIME ( #96, #160 ) ;
#40 = LINE ( 'NONE', #7, #20 ) ;
#41 = SECURITY_CLASSIFICATION_LEVEL ( 'unclassified' ) ;
#42 = DATE_AND_TIME ( #90, #138 ) ;
#43 = CALENDAR_DATE ( 2019, 22, 7 ) ;
#44 = CC_DESIGN_DATE_AND_TIME_ASSIGNMENT ( #69, #108, ( #65 ) ) ;
#45 = FACE_OUTER_BOUND ( 'NONE', #98, .T. ) ;
#46 = CC_DESIGN_PERSON_AND_ORGANIZATION_ASSIGNMENT ( #117, #166, ( #233 ) ) ;
#47 = VERTEX_POINT ( 'NONE', #52 ) ;
#48 = CC_DESIGN_APPROVAL ( #270, ( #179 ) ) ;
#49 = APPROVAL_DATE_TIME ( #42, #164 ) ;
#50 = COORDINATED_UNIVERSAL_TIME_OFFSET ( 8, 0, .AHEAD. ) ;
#51 = DIRECTION ( 'NONE',  ( -1.000000000000000000, 0.0000000000000000000, 0.0000000000000000000 ) ) ;
#52 = CARTESIAN_POINT ( 'NONE',  ( 49.88562548436229300, 53.11162809612241600, 0.0000000000000000000 ) ) ;
#53 = CARTESIAN_POINT ( 'NONE',  ( 69.88562548436229300, 73.11162809612241600, 0.0000000000000000000 ) ) ;
#54 = LOCAL_TIME ( 14, 5, 44.00000000000000000, #252 ) ;
#55 = ORIENTED_EDGE ( 'NONE', *, *, #215, .T. ) ;
#56 = CARTESIAN_POINT ( 'NONE',  ( 69.88562548436229300, 53.11162809612241600, 20.00000000000000000 ) ) ;
#57 = CC_DESIGN_DATE_AND_TIME_ASSIGNMENT ( #280, #165, ( #233 ) ) ;
#58 = APPROVAL_ROLE ( '' ) ;
#59 = APPLICATION_PROTOCOL_DEFINITION ( 'international standard', 'config_control_design', 1994, #190 ) ;
#60 = DIRECTION ( 'NONE',  ( 1.000000000000000000, 0.0000000000000000000, 0.0000000000000000000 ) ) ;
#61 = CALENDAR_DATE ( 2019, 22, 7 ) ;
#62 = CARTESIAN_POINT ( 'NONE',  ( 69.88562548436229300, 53.11162809612241600, 20.00000000000000000 ) ) ;
#63 = APPROVAL ( #148, 'Î´Ö¸¶¨' ) ;
#64 = DATE_TIME_ROLE ( 'creation_date' ) ;
#65 = PRODUCT_DEFINITION ( 'Î´Öª', '', #152, #116 ) ;
#66 = PERSON_AND_ORGANIZATION ( #263, #109 ) ;
#67 = CC_DESIGN_PERSON_AND_ORGANIZATION_ASSIGNMENT ( #175, #123, ( #258 ) ) ;
#68 = PERSON_AND_ORGANIZATION ( #263, #109 ) ;
#69 = DATE_AND_TIME ( #133, #192 ) ;
#70 = APPROVAL ( #31, 'Î´Ö¸¶¨' ) ;
#71 = PLANE ( 'NONE',  #196 ) ;
#72 = COORDINATED_UNIVERSAL_TIME_OFFSET ( 8, 0, .AHEAD. ) ;
#73 = APPROVAL_DATE_TIME ( #16, #278 ) ;
#74 = FACE_OUTER_BOUND ( 'NONE', #110, .T. ) ;
#75 = CC_DESIGN_APPROVAL ( #70, ( #233 ) ) ;
#76 = CARTESIAN_POINT ( 'NONE',  ( 49.88562548436229300, 53.11162809612241600, 20.00000000000000000 ) ) ;
#77 = DIRECTION ( 'NONE',  ( -1.000000000000000000, 0.0000000000000000000, 0.0000000000000000000 ) ) ;
#78 = DIRECTION ( 'NONE',  ( 0.0000000000000000000, 1.000000000000000000, 0.0000000000000000000 ) ) ;
#79 = ORIENTED_EDGE ( 'NONE', *, *, #136, .F. ) ;
#80 = APPLICATION_PROTOCOL_DEFINITION ( 'international standard', 'config_control_design', 1994, #187 ) ;
#81 = PERSON_AND_ORGANIZATION_ROLE ( 'creator' ) ;
#82 = APPROVAL_DATE_TIME ( #139, #86 ) ;
#83 = VECTOR ( 'NONE', #239, 1000.000000000000000 ) ;
#84 = PERSON_AND_ORGANIZATION_ROLE ( 'classification_officer' ) ;
#85 = DATE_TIME_ROLE ( 'classification_date' ) ;
#86 = APPROVAL ( #250, 'Î´Ö¸¶¨' ) ;
#87 = LOCAL_TIME ( 14, 5, 44.00000000000000000, #146 ) ;
#88 = VERTEX_POINT ( 'NONE', #120 ) ;
#89 = CC_DESIGN_SECURITY_CLASSIFICATION ( #233, ( #258 ) ) ;
#90 = CALENDAR_DATE ( 2019, 22, 7 ) ;
#91 = CC_DESIGN_APPROVAL ( #164, ( #21 ) ) ;
#92 = CLOSED_SHELL ( 'NONE', ( #281, #176, #177, #22, #4 ) ) ;
#93 = PERSON_AND_ORGANIZATION ( #263, #109 ) ;
#94 = FACE_OUTER_BOUND ( 'NONE', #228, .T. ) ;
#95 = CARTESIAN_POINT ( 'NONE',  ( 0.0000000000000000000, 0.0000000000000000000, 20.00000000000000000 ) ) ;
#96 = CALENDAR_DATE ( 2019, 22, 7 ) ;
#97 = PLANE ( 'NONE',  #222 ) ;
#98 = EDGE_LOOP ( 'NONE', ( #140, #114, #254, #172 ) ) ;
#99 = CC_DESIGN_APPROVAL ( #86, ( #65 ) ) ;
#100 = APPROVAL_STATUS ( 'not_yet_approved' ) ;
#101 = CARTESIAN_POINT ( 'NONE',  ( 0.0000000000000000000, 0.0000000000000000000, 0.0000000000000000000 ) ) ;
#102 = SECURITY_CLASSIFICATION_LEVEL ( 'unclassified' ) ;
#103 = CALENDAR_DATE ( 2019, 22, 7 ) ;
#104 = FACE_OUTER_BOUND ( 'NONE', #202, .T. ) ;
#105 = APPLICATION_CONTEXT ( 'configuration controlled 3d designs of mechanical parts and assemblies' ) ;
#106 = APPROVAL_ROLE ( '' ) ;
#107 = PRODUCT_DEFINITION_SHAPE ( 'NONE', 'NONE',  #179 ) ;
#108 = DATE_TIME_ROLE ( 'creation_date' ) ;
#109 = ORGANIZATION ( 'Î´Ö¸¶¨', 'Î´Ö¸¶¨', '' ) ;
#110 = EDGE_LOOP ( 'NONE', ( #24, #150, #157 ) ) ;
#111 = PERSON_AND_ORGANIZATION ( #263, #109 ) ;
#112 = ADVANCED_BREP_SHAPE_REPRESENTATION ( '355507', ( #155, #34 ), #232 ) ;
#113 = APPROVAL_PERSON_ORGANIZATION ( #171, #278, #221 ) ;
#114 = ORIENTED_EDGE ( 'NONE', *, *, #215, .F. ) ;
#115 = EDGE_CURVE ( 'NONE', #47, #17, #247, .T. ) ;
#116 = DESIGN_CONTEXT ( 'detailed design', #249, 'design' ) ;
#117 = PERSON_AND_ORGANIZATION ( #263, #109 ) ;
#118 = DIRECTION ( 'NONE',  ( 0.7071067811865474600, 0.7071067811865474600, 0.0000000000000000000 ) ) ;
#119 = CARTESIAN_POINT ( 'NONE',  ( 69.88562548436229300, 53.11162809612241600, 0.0000000000000000000 ) ) ;
#120 = CARTESIAN_POINT ( 'NONE',  ( 49.88562548436229300, 53.11162809612241600, 20.00000000000000000 ) ) ;
#121 = VECTOR ( 'NONE', #137, 1000.000000000000000 ) ;
#122 = DIRECTION ( 'NONE',  ( 0.0000000000000000000, 1.000000000000000000, 0.0000000000000000000 ) ) ;
#123 = PERSON_AND_ORGANIZATION_ROLE ( 'design_supplier' ) ;
#124 = PLANE ( 'NONE',  #186 ) ;
#125 = APPLICATION_PROTOCOL_DEFINITION ( 'international standard', 'config_control_design', 1994, #249 ) ;
#126 = SHAPE_DEFINITION_REPRESENTATION ( #142, #112 ) ;
#127 = EDGE_CURVE ( 'NONE', #88, #195, #154, .T. ) ;
#128 = PERSON_AND_ORGANIZATION_ROLE ( 'creator' ) ;
#129 = CARTESIAN_POINT ( 'NONE',  ( 69.88562548436229300, 53.11162809612241600, 20.00000000000000000 ) ) ;
#130 = LOCAL_TIME ( 14, 5, 44.00000000000000000, #50 ) ;
#131 = VECTOR ( 'NONE', #78, 1000.000000000000000 ) ;
#132 = CC_DESIGN_PERSON_AND_ORGANIZATION_ASSIGNMENT ( #19, #128, ( #65 ) ) ;
#133 = CALENDAR_DATE ( 2019, 22, 7 ) ;
#134 = EDGE_CURVE ( 'NONE', #32, #143, #220, .T. ) ;
#135 = ORIENTED_EDGE ( 'NONE', *, *, #136, .T. ) ;
#136 = EDGE_CURVE ( 'NONE', #143, #17, #147, .T. ) ;
#137 = DIRECTION ( 'NONE',  ( -1.000000000000000000, 0.0000000000000000000, 0.0000000000000000000 ) ) ;
#138 = LOCAL_TIME ( 14, 5, 44.00000000000000000, #212 ) ;
#139 = DATE_AND_TIME ( #25, #87 ) ;
#140 = ORIENTED_EDGE ( 'NONE', *, *, #115, .F. ) ;
#141 = CC_DESIGN_PERSON_AND_ORGANIZATION_ASSIGNMENT ( #156, #173, ( #152 ) ) ;
#142 = PRODUCT_DEFINITION_SHAPE ( 'NONE', 'NONE',  #65 ) ;
#143 = VERTEX_POINT ( 'NONE', #184 ) ;
#144 = APPROVAL_STATUS ( 'not_yet_approved' ) ;
#145 = DIRECTION ( 'NONE',  ( 0.0000000000000000000, -1.000000000000000000, 0.0000000000000000000 ) ) ;
#146 = COORDINATED_UNIVERSAL_TIME_OFFSET ( 8, 0, .AHEAD. ) ;
#147 = LINE ( 'NONE', #119, #26 ) ;
#148 = APPROVAL_STATUS ( 'not_yet_approved' ) ;
#149 = PRODUCT_RELATED_PRODUCT_CATEGORY ( 'detail', '', ( #242 ) ) ;
#150 = ORIENTED_EDGE ( 'NONE', *, *, #244, .T. ) ;
#151 = APPROVAL_STATUS ( 'not_yet_approved' ) ;
#152 = PRODUCT_DEFINITION_FORMATION_WITH_SPECIFIED_SOURCE ( 'ÈÎºÎ', '', #260, .NOT_KNOWN. ) ;
#153 = PERSON_AND_ORGANIZATION ( #263, #109 ) ;
#154 = LINE ( 'NONE', #76, #162 ) ;
#155 = MANIFOLD_SOLID_BREP ( 'Í¹Ì¨-À­Éì1', #92 ) ;
#156 = PERSON_AND_ORGANIZATION ( #263, #109 ) ;
#157 = ORIENTED_EDGE ( 'NONE', *, *, #127, .F. ) ;
#158 = EDGE_CURVE ( 'NONE', #195, #17, #208, .T. ) ;
#159 = CARTESIAN_POINT ( 'NONE',  ( 69.88562548436229300, 73.11162809612241600, 20.00000000000000000 ) ) ;
#160 = LOCAL_TIME ( 14, 5, 44.00000000000000000, #72 ) ;
#161 = DATE_AND_TIME ( #210, #54 ) ;
#162 = VECTOR ( 'NONE', #266, 1000.000000000000100 ) ;
#163 = CARTESIAN_POINT ( 'NONE',  ( 49.88562548436229300, 53.11162809612241600, 20.00000000000000000 ) ) ;
#164 = APPROVAL ( #151, 'Î´Ö¸¶¨' ) ;
#165 = DATE_TIME_ROLE ( 'classification_date' ) ;
#166 = PERSON_AND_ORGANIZATION_ROLE ( 'classification_officer' ) ;
#167 = DIRECTION ( 'NONE',  ( 0.0000000000000000000, 0.0000000000000000000, 1.000000000000000000 ) ) ;
#168 = EDGE_CURVE ( 'NONE', #143, #47, #40, .T. ) ;
#169 = LOCAL_TIME ( 14, 5, 44.00000000000000000, #36 ) ;
#170 = PERSON_AND_ORGANIZATION_ROLE ( 'design_owner' ) ;
#171 = PERSON_AND_ORGANIZATION ( #263, #109 ) ;
#172 = ORIENTED_EDGE ( 'NONE', *, *, #158, .T. ) ;
#173 = PERSON_AND_ORGANIZATION_ROLE ( 'design_supplier' ) ;
#174 = AXIS2_PLACEMENT_3D ( 'NONE', #181, #28, #217 ) ;
#175 = PERSON_AND_ORGANIZATION ( #263, #109 ) ;
#176 = ADVANCED_FACE ( 'NONE', ( #104 ), #124, .F. ) ;
#177 = ADVANCED_FACE ( 'NONE', ( #45 ), #185, .T. ) ;
#178 = ORIENTED_EDGE ( 'NONE', *, *, #115, .T. ) ;
#179 = PRODUCT_DEFINITION ( 'Î´Öª', '', #258, #211 ) ;
#180 = PERSON_AND_ORGANIZATION ( #263, #109 ) ;
#181 = CARTESIAN_POINT ( 'NONE',  ( 0.0000000000000000000, 0.0000000000000000000, 0.0000000000000000000 ) ) ;
#182 = PERSON_AND_ORGANIZATION ( #263, #109 ) ;
#183 = COORDINATED_UNIVERSAL_TIME_OFFSET ( 8, 0, .AHEAD. ) ;
#184 = CARTESIAN_POINT ( 'NONE',  ( 69.88562548436229300, 53.11162809612241600, 0.0000000000000000000 ) ) ;
#185 = PLANE ( 'NONE',  #27 ) ;
#186 = AXIS2_PLACEMENT_3D ( 'NONE', #225, #77, #274 ) ;
#187 = APPLICATION_CONTEXT ( 'configuration controlled 3d designs of mechanical parts and assemblies' ) ;
#188 = PERSON_AND_ORGANIZATION ( #263, #109 ) ;
#189 = DIRECTION ( 'NONE',  ( 0.0000000000000000000, 0.0000000000000000000, 1.000000000000000000 ) ) ;
#190 = APPLICATION_CONTEXT ( 'configuration controlled 3d designs of mechanical parts and assemblies' ) ;
#191 = LOCAL_TIME ( 14, 5, 44.00000000000000000, #245 ) ;
#192 = LOCAL_TIME ( 14, 5, 44.00000000000000000, #240 ) ;
#193 = ORIENTED_EDGE ( 'NONE', *, *, #134, .T. ) ;
#194 = PERSON_AND_ORGANIZATION ( #263, #109 ) ;
#195 = VERTEX_POINT ( 'NONE', #246 ) ;
#196 = AXIS2_PLACEMENT_3D ( 'NONE', #95, #219, #243 ) ;
#197 = APPROVAL_PERSON_ORGANIZATION ( #111, #164, #275 ) ;
#198 = VECTOR ( 'NONE', #273, 1000.000000000000000 ) ;
#199 = ORIENTED_EDGE ( 'NONE', *, *, #168, .F. ) ;
#200 = APPROVAL_PERSON_ORGANIZATION ( #93, #86, #271 ) ;
#201 = CARTESIAN_POINT ( 'NONE',  ( 69.88562548436229300, 53.11162809612241600, 20.00000000000000000 ) ) ;
#202 = EDGE_LOOP ( 'NONE', ( #135, #18, #256, #193 ) ) ;
#203 = DIRECTION ( 'NONE',  ( -0.0000000000000000000, -0.0000000000000000000, -1.000000000000000000 ) ) ;
#204 = PERSON_AND_ORGANIZATION_ROLE ( 'design_owner' ) ;
#205 = DIRECTION ( 'NONE',  ( 1.000000000000000000, 0.0000000000000000000, 0.0000000000000000000 ) ) ;
#206 = MECHANICAL_CONTEXT ( 'NONE', #105, 'mechanical' ) ;
#207 = DIRECTION ( 'NONE',  ( -0.7071067811865474600, -0.7071067811865474600, 0.0000000000000000000 ) ) ;
#208 = LINE ( 'NONE', #159, #83 ) ;
#209 = CC_DESIGN_PERSON_AND_ORGANIZATION_ASSIGNMENT ( #66, #204, ( #242 ) ) ;
#210 = CALENDAR_DATE ( 2019, 22, 7 ) ;
#211 = DESIGN_CONTEXT ( 'detailed design', #190, 'design' ) ;
#212 = COORDINATED_UNIVERSAL_TIME_OFFSET ( 8, 0, .AHEAD. ) ;
#213 = VECTOR ( 'NONE', #203, 1000.000000000000000 ) ;
#214 = APPROVAL_PERSON_ORGANIZATION ( #153, #70, #33 ) ;
#215 = EDGE_CURVE ( 'NONE', #88, #47, #37, .T. ) ;
#216 = CC_DESIGN_APPROVAL ( #278, ( #258 ) ) ;
#217 = DIRECTION ( 'NONE',  ( -1.000000000000000000, 0.0000000000000000000, -0.0000000000000000000 ) ) ;
#218 = LOCAL_TIME ( 14, 5, 44.00000000000000000, #276 ) ;
#219 = DIRECTION ( 'NONE',  ( 0.0000000000000000000, 0.0000000000000000000, -1.000000000000000000 ) ) ;
#220 = LINE ( 'NONE', #201, #213 ) ;
#221 = APPROVAL_ROLE ( '' ) ;
#222 = AXIS2_PLACEMENT_3D ( 'NONE', #129, #145, #35 ) ;
#223 = MECHANICAL_CONTEXT ( 'NONE', #187, 'mechanical' ) ;
#224 = PERSON_AND_ORGANIZATION ( #263, #109 ) ;
#225 = CARTESIAN_POINT ( 'NONE',  ( 69.88562548436229300, 53.11162809612241600, 20.00000000000000000 ) ) ;
#226 =( NAMED_UNIT ( * ) PLANE_ANGLE_UNIT ( ) SI_UNIT ( $, .RADIAN. ) );
#227 = APPROVAL_PERSON_ORGANIZATION ( #8, #63, #106 ) ;
#228 = EDGE_LOOP ( 'NONE', ( #199, #267, #9, #55 ) ) ;
#229 = CC_DESIGN_DATE_AND_TIME_ASSIGNMENT ( #255, #64, ( #179 ) ) ;
#230 = PRODUCT_RELATED_PRODUCT_CATEGORY ( 'detail', '', ( #260 ) ) ;
#231 = CALENDAR_DATE ( 2019, 22, 7 ) ;
#232 =( GEOMETRIC_REPRESENTATION_CONTEXT ( 3 ) GLOBAL_UNCERTAINTY_ASSIGNED_CONTEXT ( ( #259 ) ) GLOBAL_UNIT_ASSIGNED_CONTEXT ( ( #268, #226, #251 ) ) REPRESENTATION_CONTEXT ( 'NONE', 'WORKASPACE' ) );
#233 = SECURITY_CLASSIFICATION ( '', '', #102 ) ;
#234 = APPROVAL_DATE_TIME ( #272, #63 ) ;
#235 = DATE_AND_TIME ( #43, #169 ) ;
#236 = LINE ( 'NONE', #62, #131 ) ;
#237 = CC_DESIGN_PERSON_AND_ORGANIZATION_ASSIGNMENT ( #180, #11, ( #258 ) ) ;
#238 = VECTOR ( 'NONE', #118, 1000.000000000000100 ) ;
#239 = DIRECTION ( 'NONE',  ( -0.0000000000000000000, -0.0000000000000000000, -1.000000000000000000 ) ) ;
#240 = COORDINATED_UNIVERSAL_TIME_OFFSET ( 8, 0, .AHEAD. ) ;
#241 = ORIENTED_EDGE ( 'NONE', *, *, #168, .T. ) ;
#242 = PRODUCT ( '355507', '355507', '', ( #206 ) ) ;
#243 = DIRECTION ( 'NONE',  ( -1.000000000000000000, 0.0000000000000000000, -0.0000000000000000000 ) ) ;
#244 = EDGE_CURVE ( 'NONE', #32, #195, #236, .T. ) ;
#245 = COORDINATED_UNIVERSAL_TIME_OFFSET ( 8, 0, .AHEAD. ) ;
#246 = CARTESIAN_POINT ( 'NONE',  ( 69.88562548436229300, 73.11162809612241600, 20.00000000000000000 ) ) ;
#247 = LINE ( 'NONE', #10, #238 ) ;
#248 = CC_DESIGN_PERSON_AND_ORGANIZATION_ASSIGNMENT ( #182, #253, ( #152 ) ) ;
#249 = APPLICATION_CONTEXT ( 'configuration controlled 3d designs of mechanical parts and assemblies' ) ;
#250 = APPROVAL_STATUS ( 'not_yet_approved' ) ;
#251 =( NAMED_UNIT ( * ) SI_UNIT ( $, .STERADIAN. ) SOLID_ANGLE_UNIT ( ) );
#252 = COORDINATED_UNIVERSAL_TIME_OFFSET ( 8, 0, .AHEAD. ) ;
#253 = PERSON_AND_ORGANIZATION_ROLE ( 'creator' ) ;
#254 = ORIENTED_EDGE ( 'NONE', *, *, #127, .T. ) ;
#255 = DATE_AND_TIME ( #231, #218 ) ;
#256 = ORIENTED_EDGE ( 'NONE', *, *, #244, .F. ) ;
#257 = CC_DESIGN_SECURITY_CLASSIFICATION ( #21, ( #152 ) ) ;
#258 = PRODUCT_DEFINITION_FORMATION_WITH_SPECIFIED_SOURCE ( 'ÈÎºÎ', '', #242, .NOT_KNOWN. ) ;
#259 = UNCERTAINTY_MEASURE_WITH_UNIT (LENGTH_MEASURE( 1.000000000000000100E-005 ), #268, 'distance_accuracy_value', 'NONE');
#260 = PRODUCT ( '355507', '355507', '', ( #223 ) ) ;
#261 = CC_DESIGN_PERSON_AND_ORGANIZATION_ASSIGNMENT ( #194, #84, ( #21 ) ) ;
#262 = AXIS2_PLACEMENT_3D ( 'NONE', #101, #189, #205 ) ;
#263 = PERSON ( 'Î´Ö¸¶¨', 'Î´Ö¸¶¨', 'Î´Ö¸¶¨', ('Î´Ö¸¶¨'), ('Î´Ö¸¶¨'), ('Î´Ö¸¶¨') ) ;
#264 = APPROVAL_DATE_TIME ( #235, #70 ) ;
#265 = LINE ( 'NONE', #56, #121 ) ;
#266 = DIRECTION ( 'NONE',  ( 0.7071067811865474600, 0.7071067811865474600, 0.0000000000000000000 ) ) ;
#267 = ORIENTED_EDGE ( 'NONE', *, *, #134, .F. ) ;
#268 =( LENGTH_UNIT ( ) NAMED_UNIT ( * ) SI_UNIT ( .MILLI., .METRE. ) );
#269 = APPLICATION_PROTOCOL_DEFINITION ( 'international standard', 'config_control_design', 1994, #105 ) ;
#270 = APPROVAL ( #100, 'Î´Ö¸¶¨' ) ;
#271 = APPROVAL_ROLE ( '' ) ;
#272 = DATE_AND_TIME ( #15, #191 ) ;
#273 = DIRECTION ( 'NONE',  ( -0.0000000000000000000, -0.0000000000000000000, -1.000000000000000000 ) ) ;
#274 = DIRECTION ( 'NONE',  ( 0.0000000000000000000, 0.0000000000000000000, 1.000000000000000000 ) ) ;
#275 = APPROVAL_ROLE ( '' ) ;
#276 = COORDINATED_UNIVERSAL_TIME_OFFSET ( 8, 0, .AHEAD. ) ;
#277 = FACE_OUTER_BOUND ( 'NONE', #3, .T. ) ;
#278 = APPROVAL ( #144, 'Î´Ö¸¶¨' ) ;
#279 = CC_DESIGN_DATE_AND_TIME_ASSIGNMENT ( #39, #85, ( #21 ) ) ;
#280 = DATE_AND_TIME ( #61, #130 ) ;
#281 = ADVANCED_FACE ( 'NONE', ( #94 ), #97, .T. ) ;
#282 = CC_DESIGN_PERSON_AND_ORGANIZATION_ASSIGNMENT ( #68, #170, ( #260 ) ) ;
ENDSEC;
END-ISO-10303-21;
