ISO-10303-21;
HEADER;
FILE_DESCRIPTION (( 'STEP AP203' ),
    '1' );
FILE_NAME ('355505.STEP',
    '2019-07-22T06:02:09',
    ( '' ),
    ( '' ),
    'SwSTEP 2.0',
    'SolidWorks 2016',
    '' );
FILE_SCHEMA (( 'CONFIG_CONTROL_DESIGN' ));
ENDSEC;

DATA;
#1 = APPROVAL ( #136, 'Î´Ö¸¶¨' ) ;
#2 = LOCAL_TIME ( 14, 2, 9.000000000000000000, #113 ) ;
#3 = ORIENTED_EDGE ( 'NONE', *, *, #115, .T. ) ;
#4 = DATE_AND_TIME ( #209, #44 ) ;
#5 = VECTOR ( 'NONE', #175, 1000.000000000000000 ) ;
#6 = DIRECTION ( 'NONE',  ( -0.7071067811865475700, -0.7071067811865474600, -0.0000000000000000000 ) ) ;
#7 = AXIS2_PLACEMENT_3D ( 'NONE', #223, #91, #268 ) ;
#8 = DIRECTION ( 'NONE',  ( 0.7071067811865474600, 0.7071067811865474600, 0.0000000000000000000 ) ) ;
#9 = LINE ( 'NONE', #94, #86 ) ;
#10 = AXIS2_PLACEMENT_3D ( 'NONE', #142, #230, #34 ) ;
#11 = DIRECTION ( 'NONE',  ( 0.0000000000000000000, 0.0000000000000000000, -1.000000000000000000 ) ) ;
#12 = PERSON_AND_ORGANIZATION_ROLE ( 'creator' ) ;
#13 = APPROVAL_ROLE ( '' ) ;
#14 = LOCAL_TIME ( 14, 2, 9.000000000000000000, #248 ) ;
#15 = DESIGN_CONTEXT ( 'detailed design', #184, 'design' ) ;
#16 = MECHANICAL_CONTEXT ( 'NONE', #206, 'mechanical' ) ;
#17 = APPROVAL_STATUS ( 'not_yet_approved' ) ;
#18 = PERSON_AND_ORGANIZATION_ROLE ( 'creator' ) ;
#19 = CC_DESIGN_PERSON_AND_ORGANIZATION_ASSIGNMENT ( #276, #124, ( #153 ) ) ;
#20 = PERSON_AND_ORGANIZATION ( #187, #127 ) ;
#21 = VECTOR ( 'NONE', #226, 1000.000000000000000 ) ;
#22 = PERSON_AND_ORGANIZATION ( #187, #127 ) ;
#23 = ADVANCED_FACE ( 'NONE', ( #264 ), #228, .F. ) ;
#24 = SHAPE_DEFINITION_REPRESENTATION ( #267, #88 ) ;
#25 = ORIENTED_EDGE ( 'NONE', *, *, #102, .T. ) ;
#26 = ADVANCED_FACE ( 'NONE', ( #31 ), #176, .T. ) ;
#27 = COORDINATED_UNIVERSAL_TIME_OFFSET ( 8, 0, .AHEAD. ) ;
#28 = CALENDAR_DATE ( 2019, 22, 7 ) ;
#29 = APPROVAL_DATE_TIME ( #262, #156 ) ;
#30 = CARTESIAN_POINT ( 'NONE',  ( 43.67851592772645100, 33.19476756007652100, 12.50000000000000000 ) ) ;
#31 = FACE_OUTER_BOUND ( 'NONE', #192, .T. ) ;
#32 = CC_DESIGN_APPROVAL ( #125, ( #153 ) ) ;
#33 = LINE ( 'NONE', #174, #222 ) ;
#34 = DIRECTION ( 'NONE',  ( 1.000000000000000000, 0.0000000000000000000, 0.0000000000000000000 ) ) ;
#35 = PERSON_AND_ORGANIZATION_ROLE ( 'design_supplier' ) ;
#36 = CC_DESIGN_DATE_AND_TIME_ASSIGNMENT ( #58, #273, ( #218 ) ) ;
#37 = PERSON_AND_ORGANIZATION_ROLE ( 'creator' ) ;
#38 = CALENDAR_DATE ( 2019, 22, 7 ) ;
#39 = LOCAL_TIME ( 14, 2, 9.000000000000000000, #92 ) ;
#40 = VECTOR ( 'NONE', #41, 1000.000000000000000 ) ;
#41 = DIRECTION ( 'NONE',  ( 0.0000000000000000000, 1.000000000000000000, 0.0000000000000000000 ) ) ;
#42 = PRODUCT_DEFINITION ( 'Î´Öª', '', #195, #15 ) ;
#43 = LINE ( 'NONE', #52, #239 ) ;
#44 = LOCAL_TIME ( 14, 2, 9.000000000000000000, #243 ) ;
#45 = LINE ( 'NONE', #74, #147 ) ;
#46 = PRODUCT_DEFINITION_FORMATION_WITH_SPECIFIED_SOURCE ( 'ÈÎºÎ', '', #162, .NOT_KNOWN. ) ;
#47 = EDGE_CURVE ( 'NONE', #211, #111, #216, .T. ) ;
#48 = EDGE_LOOP ( 'NONE', ( #213, #244, #266, #219 ) ) ;
#49 = APPROVAL_DATE_TIME ( #204, #125 ) ;
#50 = LOCAL_TIME ( 14, 2, 9.000000000000000000, #170 ) ;
#51 = CARTESIAN_POINT ( 'NONE',  ( 31.17851592772644400, 33.19476756007652100, 12.50000000000000000 ) ) ;
#52 = CARTESIAN_POINT ( 'NONE',  ( 31.17851592772644400, 33.19476756007652100, 12.50000000000000000 ) ) ;
#53 = DIRECTION ( 'NONE',  ( -1.000000000000000000, 0.0000000000000000000, -0.0000000000000000000 ) ) ;
#54 = CC_DESIGN_SECURITY_CLASSIFICATION ( #218, ( #46 ) ) ;
#55 = CARTESIAN_POINT ( 'NONE',  ( 31.17851592772644400, 33.19476756007652100, 12.50000000000000000 ) ) ;
#56 = APPLICATION_CONTEXT ( 'configuration controlled 3d designs of mechanical parts and assemblies' ) ;
#57 = APPLICATION_PROTOCOL_DEFINITION ( 'international standard', 'config_control_design', 1994, #184 ) ;
#58 = DATE_AND_TIME ( #194, #2 ) ;
#59 = EDGE_LOOP ( 'NONE', ( #279, #151, #128 ) ) ;
#60 =( NAMED_UNIT ( * ) SI_UNIT ( $, .STERADIAN. ) SOLID_ANGLE_UNIT ( ) );
#61 = CC_DESIGN_APPROVAL ( #201, ( #46 ) ) ;
#62 = LINE ( 'NONE', #202, #104 ) ;
#63 = PERSON_AND_ORGANIZATION ( #187, #127 ) ;
#64 = APPROVAL_DATE_TIME ( #281, #112 ) ;
#65 = AXIS2_PLACEMENT_3D ( 'NONE', #158, #181, #203 ) ;
#66 = APPROVAL_PERSON_ORGANIZATION ( #215, #212, #237 ) ;
#67 = FACE_OUTER_BOUND ( 'NONE', #59, .T. ) ;
#68 = CC_DESIGN_PERSON_AND_ORGANIZATION_ASSIGNMENT ( #173, #105, ( #236 ) ) ;
#69 = CC_DESIGN_APPROVAL ( #1, ( #218 ) ) ;
#70 = APPROVAL_PERSON_ORGANIZATION ( #253, #112, #274 ) ;
#71 = PLANE ( 'NONE',  #75 ) ;
#72 = CC_DESIGN_DATE_AND_TIME_ASSIGNMENT ( #154, #254, ( #132 ) ) ;
#73 = VERTEX_POINT ( 'NONE', #30 ) ;
#74 = CARTESIAN_POINT ( 'NONE',  ( 43.67851592772645100, 33.19476756007652100, 12.50000000000000000 ) ) ;
#75 = AXIS2_PLACEMENT_3D ( 'NONE', #186, #165, #138 ) ;
#76 = APPROVAL_ROLE ( '' ) ;
#77 = APPROVAL_DATE_TIME ( #197, #1 ) ;
#78 = APPROVAL_STATUS ( 'not_yet_approved' ) ;
#79 = APPLICATION_PROTOCOL_DEFINITION ( 'international standard', 'config_control_design', 1994, #206 ) ;
#80 = DIRECTION ( 'NONE',  ( 1.000000000000000000, -0.0000000000000000000, -0.0000000000000000000 ) ) ;
#81 = APPROVAL_PERSON_ORGANIZATION ( #135, #1, #13 ) ;
#82 = DIRECTION ( 'NONE',  ( 1.000000000000000000, 0.0000000000000000000, 0.0000000000000000000 ) ) ;
#83 = CC_DESIGN_PERSON_AND_ORGANIZATION_ASSIGNMENT ( #277, #231, ( #42 ) ) ;
#84 = CC_DESIGN_APPROVAL ( #112, ( #42 ) ) ;
#85 = DATE_AND_TIME ( #90, #232 ) ;
#86 = VECTOR ( 'NONE', #80, 1000.000000000000000 ) ;
#87 = CC_DESIGN_PERSON_AND_ORGANIZATION_ASSIGNMENT ( #119, #260, ( #218 ) ) ;
#88 = ADVANCED_BREP_SHAPE_REPRESENTATION ( '355505', ( #179, #10 ), #247 ) ;
#89 = VERTEX_POINT ( 'NONE', #118 ) ;
#90 = CALENDAR_DATE ( 2019, 22, 7 ) ;
#91 = DIRECTION ( 'NONE',  ( -1.000000000000000000, 0.0000000000000000000, 0.0000000000000000000 ) ) ;
#92 = COORDINATED_UNIVERSAL_TIME_OFFSET ( 8, 0, .AHEAD. ) ;
#93 = FACE_OUTER_BOUND ( 'NONE', #48, .T. ) ;
#94 = CARTESIAN_POINT ( 'NONE',  ( 43.67851592772645100, 33.19476756007652100, 0.0000000000000000000 ) ) ;
#95 = DIRECTION ( 'NONE',  ( -0.7071067811865475700, -0.7071067811865474600, -0.0000000000000000000 ) ) ;
#96 = DIRECTION ( 'NONE',  ( -0.0000000000000000000, -0.0000000000000000000, -1.000000000000000000 ) ) ;
#97 = CC_DESIGN_PERSON_AND_ORGANIZATION_ASSIGNMENT ( #108, #35, ( #195 ) ) ;
#98 = APPLICATION_CONTEXT ( 'configuration controlled 3d designs of mechanical parts and assemblies' ) ;
#99 = CC_DESIGN_PERSON_AND_ORGANIZATION_ASSIGNMENT ( #22, #188, ( #162 ) ) ;
#100 = APPROVAL_STATUS ( 'not_yet_approved' ) ;
#101 = SECURITY_CLASSIFICATION_LEVEL ( 'unclassified' ) ;
#102 = EDGE_CURVE ( 'NONE', #143, #178, #205, .T. ) ;
#103 = CALENDAR_DATE ( 2019, 22, 7 ) ;
#104 = VECTOR ( 'NONE', #95, 1000.000000000000000 ) ;
#105 = PERSON_AND_ORGANIZATION_ROLE ( 'design_owner' ) ;
#106 = APPROVAL_STATUS ( 'not_yet_approved' ) ;
#107 = VECTOR ( 'NONE', #257, 1000.000000000000000 ) ;
#108 = PERSON_AND_ORGANIZATION ( #187, #127 ) ;
#109 = COORDINATED_UNIVERSAL_TIME_OFFSET ( 8, 0, .AHEAD. ) ;
#110 = DESIGN_CONTEXT ( 'detailed design', #98, 'design' ) ;
#111 = VERTEX_POINT ( 'NONE', #180 ) ;
#112 = APPROVAL ( #78, 'Î´Ö¸¶¨' ) ;
#113 = COORDINATED_UNIVERSAL_TIME_OFFSET ( 8, 0, .AHEAD. ) ;
#114 = ORIENTED_EDGE ( 'NONE', *, *, #47, .T. ) ;
#115 = EDGE_CURVE ( 'NONE', #178, #111, #62, .T. ) ;
#116 = CARTESIAN_POINT ( 'NONE',  ( 43.67851592772645100, 45.69476756007652100, 0.0000000000000000000 ) ) ;
#117 = AXIS2_PLACEMENT_3D ( 'NONE', #182, #208, #82 ) ;
#118 = CARTESIAN_POINT ( 'NONE',  ( 43.67851592772645100, 33.19476756007652100, 0.0000000000000000000 ) ) ;
#119 = PERSON_AND_ORGANIZATION ( #187, #127 ) ;
#120 = ORIENTED_EDGE ( 'NONE', *, *, #193, .F. ) ;
#121 = PERSON_AND_ORGANIZATION_ROLE ( 'design_supplier' ) ;
#122 = PERSON_AND_ORGANIZATION ( #187, #127 ) ;
#123 = SECURITY_CLASSIFICATION_LEVEL ( 'unclassified' ) ;
#124 = PERSON_AND_ORGANIZATION_ROLE ( 'classification_officer' ) ;
#125 = APPROVAL ( #17, 'Î´Ö¸¶¨' ) ;
#126 = AXIS2_PLACEMENT_3D ( 'NONE', #251, #11, #53 ) ;
#127 = ORGANIZATION ( 'Î´Ö¸¶¨', 'Î´Ö¸¶¨', '' ) ;
#128 = ORIENTED_EDGE ( 'NONE', *, *, #140, .T. ) ;
#129 = CC_DESIGN_PERSON_AND_ORGANIZATION_ASSIGNMENT ( #150, #37, ( #195 ) ) ;
#130 = EDGE_CURVE ( 'NONE', #73, #89, #45, .T. ) ;
#131 = PERSON_AND_ORGANIZATION ( #187, #127 ) ;
#132 = PRODUCT_DEFINITION ( 'Î´Öª', '', #46, #110 ) ;
#133 = COORDINATED_UNIVERSAL_TIME_OFFSET ( 8, 0, .AHEAD. ) ;
#134 = COORDINATED_UNIVERSAL_TIME_OFFSET ( 8, 0, .AHEAD. ) ;
#135 = PERSON_AND_ORGANIZATION ( #187, #127 ) ;
#136 = APPROVAL_STATUS ( 'not_yet_approved' ) ;
#137 = CC_DESIGN_PERSON_AND_ORGANIZATION_ASSIGNMENT ( #177, #12, ( #46 ) ) ;
#138 = DIRECTION ( 'NONE',  ( 0.0000000000000000000, 0.0000000000000000000, 1.000000000000000000 ) ) ;
#139 = DATE_TIME_ROLE ( 'classification_date' ) ;
#140 = EDGE_CURVE ( 'NONE', #143, #211, #43, .T. ) ;
#141 = CALENDAR_DATE ( 2019, 22, 7 ) ;
#142 = CARTESIAN_POINT ( 'NONE',  ( 0.0000000000000000000, 0.0000000000000000000, 0.0000000000000000000 ) ) ;
#143 = VERTEX_POINT ( 'NONE', #269 ) ;
#144 = ORIENTED_EDGE ( 'NONE', *, *, #193, .T. ) ;
#145 = COORDINATED_UNIVERSAL_TIME_OFFSET ( 8, 0, .AHEAD. ) ;
#146 = APPROVAL_PERSON_ORGANIZATION ( #163, #156, #255 ) ;
#147 = VECTOR ( 'NONE', #96, 1000.000000000000000 ) ;
#148 = ADVANCED_FACE ( 'NONE', ( #67 ), #229, .F. ) ;
#149 = EDGE_CURVE ( 'NONE', #73, #143, #33, .T. ) ;
#150 = PERSON_AND_ORGANIZATION ( #187, #127 ) ;
#151 = ORIENTED_EDGE ( 'NONE', *, *, #149, .T. ) ;
#152 = UNCERTAINTY_MEASURE_WITH_UNIT (LENGTH_MEASURE( 1.000000000000000100E-005 ), #159, 'distance_accuracy_value', 'NONE');
#153 = SECURITY_CLASSIFICATION ( '', '', #101 ) ;
#154 = DATE_AND_TIME ( #28, #50 ) ;
#155 = ORIENTED_EDGE ( 'NONE', *, *, #47, .F. ) ;
#156 = APPROVAL ( #100, 'Î´Ö¸¶¨' ) ;
#157 = ORIENTED_EDGE ( 'NONE', *, *, #130, .F. ) ;
#158 = CARTESIAN_POINT ( 'NONE',  ( 0.0000000000000000000, 0.0000000000000000000, 12.50000000000000000 ) ) ;
#159 =( LENGTH_UNIT ( ) NAMED_UNIT ( * ) SI_UNIT ( .MILLI., .METRE. ) );
#160 = MECHANICAL_CONTEXT ( 'NONE', #56, 'mechanical' ) ;
#161 = DATE_TIME_ROLE ( 'creation_date' ) ;
#162 = PRODUCT ( '355505', '355505', '', ( #16 ) ) ;
#163 = PERSON_AND_ORGANIZATION ( #187, #127 ) ;
#164 = APPROVAL_ROLE ( '' ) ;
#165 = DIRECTION ( 'NONE',  ( 0.0000000000000000000, 1.000000000000000000, -0.0000000000000000000 ) ) ;
#166 = LINE ( 'NONE', #280, #40 ) ;
#167 = CC_DESIGN_SECURITY_CLASSIFICATION ( #153, ( #195 ) ) ;
#168 = APPROVAL_DATE_TIME ( #191, #212 ) ;
#169 = CLOSED_SHELL ( 'NONE', ( #217, #189, #23, #148, #26 ) ) ;
#170 = COORDINATED_UNIVERSAL_TIME_OFFSET ( 8, 0, .AHEAD. ) ;
#171 = ORIENTED_EDGE ( 'NONE', *, *, #140, .F. ) ;
#172 = APPROVAL_PERSON_ORGANIZATION ( #63, #125, #164 ) ;
#173 = PERSON_AND_ORGANIZATION ( #187, #127 ) ;
#174 = CARTESIAN_POINT ( 'NONE',  ( 43.67851592772645100, 33.19476756007652100, 12.50000000000000000 ) ) ;
#175 = DIRECTION ( 'NONE',  ( -0.0000000000000000000, -0.0000000000000000000, -1.000000000000000000 ) ) ;
#176 = PLANE ( 'NONE',  #126 ) ;
#177 = PERSON_AND_ORGANIZATION ( #187, #127 ) ;
#178 = VERTEX_POINT ( 'NONE', #116 ) ;
#179 = MANIFOLD_SOLID_BREP ( 'Í¹Ì¨-À­Éì1', #169 ) ;
#180 = CARTESIAN_POINT ( 'NONE',  ( 31.17851592772644400, 33.19476756007652100, 0.0000000000000000000 ) ) ;
#181 = DIRECTION ( 'NONE',  ( 0.0000000000000000000, 0.0000000000000000000, -1.000000000000000000 ) ) ;
#182 = CARTESIAN_POINT ( 'NONE',  ( 0.0000000000000000000, 0.0000000000000000000, 0.0000000000000000000 ) ) ;
#183 = LOCAL_TIME ( 14, 2, 9.000000000000000000, #134 ) ;
#184 = APPLICATION_CONTEXT ( 'configuration controlled 3d designs of mechanical parts and assemblies' ) ;
#185 = PRODUCT_RELATED_PRODUCT_CATEGORY ( 'detail', '', ( #236 ) ) ;
#186 = CARTESIAN_POINT ( 'NONE',  ( 43.67851592772645100, 33.19476756007652100, 12.50000000000000000 ) ) ;
#187 = PERSON ( 'Î´Ö¸¶¨', 'Î´Ö¸¶¨', 'Î´Ö¸¶¨', ('Î´Ö¸¶¨'), ('Î´Ö¸¶¨'), ('Î´Ö¸¶¨') ) ;
#188 = PERSON_AND_ORGANIZATION_ROLE ( 'design_owner' ) ;
#189 = ADVANCED_FACE ( 'NONE', ( #93 ), #199, .F. ) ;
#190 = LOCAL_TIME ( 14, 2, 9.000000000000000000, #109 ) ;
#191 = DATE_AND_TIME ( #258, #190 ) ;
#192 = EDGE_LOOP ( 'NONE', ( #120, #198, #263 ) ) ;
#193 = EDGE_CURVE ( 'NONE', #111, #89, #9, .T. ) ;
#194 = CALENDAR_DATE ( 2019, 22, 7 ) ;
#195 = PRODUCT_DEFINITION_FORMATION_WITH_SPECIFIED_SOURCE ( 'ÈÎºÎ', '', #236, .NOT_KNOWN. ) ;
#196 = DIRECTION ( 'NONE',  ( 0.0000000000000000000, 1.000000000000000000, 0.0000000000000000000 ) ) ;
#197 = DATE_AND_TIME ( #103, #233 ) ;
#198 = ORIENTED_EDGE ( 'NONE', *, *, #115, .F. ) ;
#199 = PLANE ( 'NONE',  #7 ) ;
#200 = CARTESIAN_POINT ( 'NONE',  ( 43.67851592772645100, 45.69476756007652100, 12.50000000000000000 ) ) ;
#201 = APPROVAL ( #106, 'Î´Ö¸¶¨' ) ;
#202 = CARTESIAN_POINT ( 'NONE',  ( 31.17851592772644400, 33.19476756007652100, 0.0000000000000000000 ) ) ;
#203 = DIRECTION ( 'NONE',  ( -1.000000000000000000, 0.0000000000000000000, -0.0000000000000000000 ) ) ;
#204 = DATE_AND_TIME ( #38, #271 ) ;
#205 = LINE ( 'NONE', #200, #21 ) ;
#206 = APPLICATION_CONTEXT ( 'configuration controlled 3d designs of mechanical parts and assemblies' ) ;
#207 =( NAMED_UNIT ( * ) PLANE_ANGLE_UNIT ( ) SI_UNIT ( $, .RADIAN. ) );
#208 = DIRECTION ( 'NONE',  ( 0.0000000000000000000, 0.0000000000000000000, 1.000000000000000000 ) ) ;
#209 = CALENDAR_DATE ( 2019, 22, 7 ) ;
#210 = APPLICATION_PROTOCOL_DEFINITION ( 'international standard', 'config_control_design', 1994, #56 ) ;
#211 = VERTEX_POINT ( 'NONE', #225 ) ;
#212 = APPROVAL ( #235, 'Î´Ö¸¶¨' ) ;
#213 = ORIENTED_EDGE ( 'NONE', *, *, #270, .T. ) ;
#214 = CC_DESIGN_APPROVAL ( #212, ( #132 ) ) ;
#215 = PERSON_AND_ORGANIZATION ( #187, #127 ) ;
#216 = LINE ( 'NONE', #55, #5 ) ;
#217 = ADVANCED_FACE ( 'NONE', ( #282 ), #71, .F. ) ;
#218 = SECURITY_CLASSIFICATION ( '', '', #123 ) ;
#219 = ORIENTED_EDGE ( 'NONE', *, *, #130, .T. ) ;
#220 = AXIS2_PLACEMENT_3D ( 'NONE', #51, #252, #8 ) ;
#221 = CALENDAR_DATE ( 2019, 22, 7 ) ;
#222 = VECTOR ( 'NONE', #196, 1000.000000000000000 ) ;
#223 = CARTESIAN_POINT ( 'NONE',  ( 43.67851592772645100, 33.19476756007652100, 12.50000000000000000 ) ) ;
#224 = CC_DESIGN_PERSON_AND_ORGANIZATION_ASSIGNMENT ( #20, #121, ( #46 ) ) ;
#225 = CARTESIAN_POINT ( 'NONE',  ( 31.17851592772644400, 33.19476756007652100, 12.50000000000000000 ) ) ;
#226 = DIRECTION ( 'NONE',  ( -0.0000000000000000000, -0.0000000000000000000, -1.000000000000000000 ) ) ;
#227 = PRODUCT_DEFINITION_SHAPE ( 'NONE', 'NONE',  #132 ) ;
#228 = PLANE ( 'NONE',  #220 ) ;
#229 = PLANE ( 'NONE',  #65 ) ;
#230 = DIRECTION ( 'NONE',  ( 0.0000000000000000000, 0.0000000000000000000, 1.000000000000000000 ) ) ;
#231 = PERSON_AND_ORGANIZATION_ROLE ( 'creator' ) ;
#232 = LOCAL_TIME ( 14, 2, 9.000000000000000000, #145 ) ;
#233 = LOCAL_TIME ( 14, 2, 9.000000000000000000, #133 ) ;
#234 = LINE ( 'NONE', #278, #107 ) ;
#235 = APPROVAL_STATUS ( 'not_yet_approved' ) ;
#236 = PRODUCT ( '355505', '355505', '', ( #160 ) ) ;
#237 = APPROVAL_ROLE ( '' ) ;
#238 = APPROVAL_DATE_TIME ( #246, #201 ) ;
#239 = VECTOR ( 'NONE', #6, 1000.000000000000000 ) ;
#240 = CC_DESIGN_APPROVAL ( #156, ( #195 ) ) ;
#241 = CALENDAR_DATE ( 2019, 22, 7 ) ;
#242 = CC_DESIGN_DATE_AND_TIME_ASSIGNMENT ( #4, #161, ( #42 ) ) ;
#243 = COORDINATED_UNIVERSAL_TIME_OFFSET ( 8, 0, .AHEAD. ) ;
#244 = ORIENTED_EDGE ( 'NONE', *, *, #102, .F. ) ;
#245 = EDGE_CURVE ( 'NONE', #211, #73, #234, .T. ) ;
#246 = DATE_AND_TIME ( #221, #183 ) ;
#247 =( GEOMETRIC_REPRESENTATION_CONTEXT ( 3 ) GLOBAL_UNCERTAINTY_ASSIGNED_CONTEXT ( ( #152 ) ) GLOBAL_UNIT_ASSIGNED_CONTEXT ( ( #159, #207, #60 ) ) REPRESENTATION_CONTEXT ( 'NONE', 'WORKASPACE' ) );
#248 = COORDINATED_UNIVERSAL_TIME_OFFSET ( 8, 0, .AHEAD. ) ;
#249 = EDGE_LOOP ( 'NONE', ( #144, #157, #272, #114 ) ) ;
#250 = CC_DESIGN_DATE_AND_TIME_ASSIGNMENT ( #85, #139, ( #153 ) ) ;
#251 = CARTESIAN_POINT ( 'NONE',  ( 0.0000000000000000000, 0.0000000000000000000, 0.0000000000000000000 ) ) ;
#252 = DIRECTION ( 'NONE',  ( 0.7071067811865475700, -0.7071067811865475700, 0.0000000000000000000 ) ) ;
#253 = PERSON_AND_ORGANIZATION ( #187, #127 ) ;
#254 = DATE_TIME_ROLE ( 'creation_date' ) ;
#255 = APPROVAL_ROLE ( '' ) ;
#256 = APPLICATION_PROTOCOL_DEFINITION ( 'international standard', 'config_control_design', 1994, #98 ) ;
#257 = DIRECTION ( 'NONE',  ( 1.000000000000000000, -0.0000000000000000000, -0.0000000000000000000 ) ) ;
#258 = CALENDAR_DATE ( 2019, 22, 7 ) ;
#259 = EDGE_LOOP ( 'NONE', ( #3, #155, #171, #25 ) ) ;
#260 = PERSON_AND_ORGANIZATION_ROLE ( 'classification_officer' ) ;
#261 = PRODUCT_RELATED_PRODUCT_CATEGORY ( 'detail', '', ( #162 ) ) ;
#262 = DATE_AND_TIME ( #141, #39 ) ;
#263 = ORIENTED_EDGE ( 'NONE', *, *, #270, .F. ) ;
#264 = FACE_OUTER_BOUND ( 'NONE', #259, .T. ) ;
#265 = APPROVAL_PERSON_ORGANIZATION ( #122, #201, #76 ) ;
#266 = ORIENTED_EDGE ( 'NONE', *, *, #149, .F. ) ;
#267 = PRODUCT_DEFINITION_SHAPE ( 'NONE', 'NONE',  #42 ) ;
#268 = DIRECTION ( 'NONE',  ( 0.0000000000000000000, 0.0000000000000000000, 1.000000000000000000 ) ) ;
#269 = CARTESIAN_POINT ( 'NONE',  ( 43.67851592772645100, 45.69476756007652100, 12.50000000000000000 ) ) ;
#270 = EDGE_CURVE ( 'NONE', #89, #178, #166, .T. ) ;
#271 = LOCAL_TIME ( 14, 2, 9.000000000000000000, #27 ) ;
#272 = ORIENTED_EDGE ( 'NONE', *, *, #245, .F. ) ;
#273 = DATE_TIME_ROLE ( 'classification_date' ) ;
#274 = APPROVAL_ROLE ( '' ) ;
#275 = CC_DESIGN_PERSON_AND_ORGANIZATION_ASSIGNMENT ( #131, #18, ( #132 ) ) ;
#276 = PERSON_AND_ORGANIZATION ( #187, #127 ) ;
#277 = PERSON_AND_ORGANIZATION ( #187, #127 ) ;
#278 = CARTESIAN_POINT ( 'NONE',  ( 43.67851592772645100, 33.19476756007652100, 12.50000000000000000 ) ) ;
#279 = ORIENTED_EDGE ( 'NONE', *, *, #245, .T. ) ;
#280 = CARTESIAN_POINT ( 'NONE',  ( 43.67851592772645100, 33.19476756007652100, 0.0000000000000000000 ) ) ;
#281 = DATE_AND_TIME ( #241, #14 ) ;
#282 = FACE_OUTER_BOUND ( 'NONE', #249, .T. ) ;
ENDSEC;
END-ISO-10303-21;
