ISO-10303-21;
HEADER;
FILE_DESCRIPTION (( 'STEP AP214' ),
    '1' );
FILE_NAME ('302506.STEP',
    '2019-08-13T03:10:00',
    ( '' ),
    ( '' ),
    'SwSTEP 2.0',
    'SolidWorks 2016',
    '' );
FILE_SCHEMA (( 'AUTOMOTIVE_DESIGN' ));
ENDSEC;

DATA;
#1 = ORIENTED_EDGE ( 'NONE', *, *, #58, .F. ) ;
#2 = VERTEX_POINT ( 'NONE', #52 ) ;
#3 = ORIENTED_EDGE ( 'NONE', *, *, #86, .F. ) ;
#4 = ORIENTED_EDGE ( 'NONE', *, *, #129, .T. ) ;
#5 =( GEOMETRIC_REPRESENTATION_CONTEXT ( 3 ) GLOBAL_UNCERTAINTY_ASSIGNED_CONTEXT ( ( #28 ) ) GLOBAL_UNIT_ASSIGNED_CONTEXT ( ( #199, #61, #197 ) ) REPRESENTATION_CONTEXT ( 'NONE', 'WORKASPACE' ) );
#6 = CARTESIAN_POINT ( 'NONE',  ( 50.44599357691348000, 29.62529673381063600, 2.299999999999999800 ) ) ;
#7 = CLOSED_SHELL ( 'NONE', ( #200, #163, #87, #162, #25, #42 ) ) ;
#8 = CARTESIAN_POINT ( 'NONE',  ( 50.44599357691348000, 19.62529673381063600, 2.299999999999999800 ) ) ;
#9 = MANIFOLD_SOLID_BREP ( 'Í¹Ì¨-À­Éì1', #7 ) ;
#10 = CARTESIAN_POINT ( 'NONE',  ( 36.44599357691348000, 19.62529673381063900, 2.299999999999999800 ) ) ;
#11 = PRODUCT_DEFINITION ( 'Î´Öª', '', #48, #44 ) ;
#12 = ORIENTED_EDGE ( 'NONE', *, *, #106, .T. ) ;
#13 = VECTOR ( 'NONE', #27, 1000.000000000000000 ) ;
#14 = VERTEX_POINT ( 'NONE', #19 ) ;
#15 =( NAMED_UNIT ( * ) SI_UNIT ( $, .STERADIAN. ) SOLID_ANGLE_UNIT ( ) );
#16 = PRODUCT_DEFINITION_SHAPE ( 'NONE', 'NONE',  #11 ) ;
#17 = LINE ( 'NONE', #104, #107 ) ;
#18 = SURFACE_STYLE_USAGE ( .BOTH. , #189 ) ;
#19 = CARTESIAN_POINT ( 'NONE',  ( 50.44599357691348000, 29.62529673381063600, 2.299999999999999800 ) ) ;
#20 = DIRECTION ( 'NONE',  ( -1.000000000000000000, 6.938893903907229400E-016, 0.0000000000000000000 ) ) ;
#21 = EDGE_CURVE ( 'NONE', #83, #54, #67, .T. ) ;
#22 = DIRECTION ( 'NONE',  ( -0.0000000000000000000, 0.0000000000000000000, -1.000000000000000000 ) ) ;
#23 = PRESENTATION_LAYER_ASSIGNMENT (  '', '', ( #88 ) ) ;
#24 = CARTESIAN_POINT ( 'NONE',  ( 36.44599357691348000, 19.62529673381063900, 2.299999999999999800 ) ) ;
#25 = ADVANCED_FACE ( 'NONE', ( #183 ), #160, .T. ) ;
#26 = CARTESIAN_POINT ( 'NONE',  ( 50.44599357691348000, 29.62529673381063600, 2.299999999999999800 ) ) ;
#27 = DIRECTION ( 'NONE',  ( -0.0000000000000000000, -0.0000000000000000000, -1.000000000000000000 ) ) ;
#28 = UNCERTAINTY_MEASURE_WITH_UNIT (LENGTH_MEASURE( 1.000000000000000100E-005 ), #199, 'distance_accuracy_value', 'NONE');
#29 = DIRECTION ( 'NONE',  ( 1.000000000000000000, 0.0000000000000000000, -0.0000000000000000000 ) ) ;
#30 = APPLICATION_PROTOCOL_DEFINITION ( 'draft international standard', 'automotive_design', 1998, #125 ) ;
#31 = ORIENTED_EDGE ( 'NONE', *, *, #46, .T. ) ;
#32 = PRESENTATION_LAYER_ASSIGNMENT (  '', '', ( #168 ) ) ;
#33 =( LENGTH_UNIT ( ) NAMED_UNIT ( * ) SI_UNIT ( .MILLI., .METRE. ) );
#34 = EDGE_CURVE ( 'NONE', #54, #2, #186, .T. ) ;
#35 = LINE ( 'NONE', #120, #155 ) ;
#36 = ORIENTED_EDGE ( 'NONE', *, *, #78, .F. ) ;
#37 = AXIS2_PLACEMENT_3D ( 'NONE', #143, #153, #76 ) ;
#38 = PLANE ( 'NONE',  #119 ) ;
#39 = ORIENTED_EDGE ( 'NONE', *, *, #46, .F. ) ;
#40 = CARTESIAN_POINT ( 'NONE',  ( 36.44599357691348000, 29.62529673381063200, 2.299999999999999800 ) ) ;
#41 = CARTESIAN_POINT ( 'NONE',  ( 50.44599357691348000, 29.62529673381063600, 0.0000000000000000000 ) ) ;
#42 = ADVANCED_FACE ( 'NONE', ( #115 ), #38, .F. ) ;
#43 = DIRECTION ( 'NONE',  ( 1.000000000000000000, 0.0000000000000000000, -0.0000000000000000000 ) ) ;
#44 = PRODUCT_DEFINITION_CONTEXT ( 'detailed design', #96, 'design' ) ;
#45 = EDGE_LOOP ( 'NONE', ( #108, #177, #31, #95 ) ) ;
#46 = EDGE_CURVE ( 'NONE', #134, #14, #75, .T. ) ;
#47 = DIRECTION ( 'NONE',  ( 0.0000000000000000000, 0.0000000000000000000, 1.000000000000000000 ) ) ;
#48 = PRODUCT_DEFINITION_FORMATION_WITH_SPECIFIED_SOURCE ( 'ÈÎºÎ', '', #181, .NOT_KNOWN. ) ;
#49 = FACE_OUTER_BOUND ( 'NONE', #82, .T. ) ;
#50 = EDGE_LOOP ( 'NONE', ( #144, #139, #175, #166 ) ) ;
#51 = EDGE_CURVE ( 'NONE', #83, #85, #147, .T. ) ;
#52 = CARTESIAN_POINT ( 'NONE',  ( 36.44599357691348000, 19.62529673381063900, 0.0000000000000000000 ) ) ;
#53 = VECTOR ( 'NONE', #140, 1000.000000000000000 ) ;
#54 = VERTEX_POINT ( 'NONE', #10 ) ;
#55 =( GEOMETRIC_REPRESENTATION_CONTEXT ( 3 ) GLOBAL_UNCERTAINTY_ASSIGNED_CONTEXT ( ( #124 ) ) GLOBAL_UNIT_ASSIGNED_CONTEXT ( ( #33, #185, #80 ) ) REPRESENTATION_CONTEXT ( 'NONE', 'WORKASPACE' ) );
#56 = VECTOR ( 'NONE', #132, 1000.000000000000000 ) ;
#57 = LINE ( 'NONE', #201, #53 ) ;
#58 = EDGE_CURVE ( 'NONE', #134, #102, #174, .T. ) ;
#59 = FILL_AREA_STYLE ('',( #138 ) ) ;
#60 = DIRECTION ( 'NONE',  ( 0.0000000000000000000, 0.0000000000000000000, 1.000000000000000000 ) ) ;
#61 =( NAMED_UNIT ( * ) PLANE_ANGLE_UNIT ( ) SI_UNIT ( $, .RADIAN. ) );
#62 = LINE ( 'NONE', #26, #13 ) ;
#63 = DIRECTION ( 'NONE',  ( -0.0000000000000000000, -0.0000000000000000000, -1.000000000000000000 ) ) ;
#64 = DIRECTION ( 'NONE',  ( -1.000000000000000000, -2.478176394252580600E-016, -0.0000000000000000000 ) ) ;
#65 = EDGE_CURVE ( 'NONE', #187, #85, #122, .T. ) ;
#66 = EDGE_LOOP ( 'NONE', ( #171, #97, #154, #126 ) ) ;
#67 = LINE ( 'NONE', #113, #56 ) ;
#68 = ORIENTED_EDGE ( 'NONE', *, *, #127, .F. ) ;
#69 = SURFACE_STYLE_FILL_AREA ( #59 ) ;
#70 = ORIENTED_EDGE ( 'NONE', *, *, #106, .F. ) ;
#71 = DIRECTION ( 'NONE',  ( 1.000000000000000000, 0.0000000000000000000, -0.0000000000000000000 ) ) ;
#72 = PLANE ( 'NONE',  #98 ) ;
#73 = CARTESIAN_POINT ( 'NONE',  ( 36.44599357691348000, 29.62529673381063200, 0.0000000000000000000 ) ) ;
#74 = DIRECTION ( 'NONE',  ( 6.938893903907229400E-016, 1.000000000000000000, -0.0000000000000000000 ) ) ;
#75 = LINE ( 'NONE', #6, #101 ) ;
#76 = DIRECTION ( 'NONE',  ( 1.000000000000000000, 2.478176394252580600E-016, 0.0000000000000000000 ) ) ;
#77 = ORIENTED_EDGE ( 'NONE', *, *, #34, .T. ) ;
#78 = EDGE_CURVE ( 'NONE', #85, #2, #17, .T. ) ;
#79 = ORIENTED_EDGE ( 'NONE', *, *, #129, .F. ) ;
#80 =( NAMED_UNIT ( * ) SI_UNIT ( $, .STERADIAN. ) SOLID_ANGLE_UNIT ( ) );
#81 = VECTOR ( 'NONE', #149, 1000.000000000000000 ) ;
#82 = EDGE_LOOP ( 'NONE', ( #12, #3, #39, #116 ) ) ;
#83 = VERTEX_POINT ( 'NONE', #121 ) ;
#84 = CARTESIAN_POINT ( 'NONE',  ( 50.44599357691348000, 29.62529673381063600, 2.299999999999999800 ) ) ;
#85 = VERTEX_POINT ( 'NONE', #191 ) ;
#86 = EDGE_CURVE ( 'NONE', #14, #187, #62, .T. ) ;
#87 = ADVANCED_FACE ( 'NONE', ( #49 ), #72, .F. ) ;
#88 = STYLED_ITEM ( 'NONE', ( #112 ), #190 ) ;
#89 = CARTESIAN_POINT ( 'NONE',  ( 0.0000000000000000000, 0.0000000000000000000, 0.0000000000000000000 ) ) ;
#90 = UNCERTAINTY_MEASURE_WITH_UNIT (LENGTH_MEASURE( 1.000000000000000100E-005 ), #100, 'distance_accuracy_value', 'NONE');
#91 = DIRECTION ( 'NONE',  ( 2.478176394252582100E-016, 1.000000000000000000, -0.0000000000000000000 ) ) ;
#92 = DIRECTION ( 'NONE',  ( 0.0000000000000000000, 0.0000000000000000000, 1.000000000000000000 ) ) ;
#93 = EDGE_LOOP ( 'NONE', ( #36, #198, #70, #79 ) ) ;
#94 = PRODUCT_CONTEXT ( 'NONE', #125, 'mechanical' ) ;
#95 = ORIENTED_EDGE ( 'NONE', *, *, #192, .T. ) ;
#96 = APPLICATION_CONTEXT ( 'automotive_design' ) ;
#97 = ORIENTED_EDGE ( 'NONE', *, *, #51, .F. ) ;
#98 = AXIS2_PLACEMENT_3D ( 'NONE', #84, #20, #193 ) ;
#99 = FACE_OUTER_BOUND ( 'NONE', #66, .T. ) ;
#100 =( LENGTH_UNIT ( ) NAMED_UNIT ( * ) SI_UNIT ( .MILLI., .METRE. ) );
#101 = VECTOR ( 'NONE', #74, 1000.000000000000000 ) ;
#102 = VERTEX_POINT ( 'NONE', #117 ) ;
#103 = DIRECTION ( 'NONE',  ( 0.0000000000000000000, -1.000000000000000000, 0.0000000000000000000 ) ) ;
#104 = CARTESIAN_POINT ( 'NONE',  ( 36.44599357691348000, 29.62529673381063200, 0.0000000000000000000 ) ) ;
#105 = VECTOR ( 'NONE', #196, 1000.000000000000000 ) ;
#106 = EDGE_CURVE ( 'NONE', #102, #187, #176, .T. ) ;
#107 = VECTOR ( 'NONE', #103, 1000.000000000000000 ) ;
#108 = ORIENTED_EDGE ( 'NONE', *, *, #21, .T. ) ;
#109 = SURFACE_STYLE_USAGE ( .BOTH. , #161 ) ;
#110 = COLOUR_RGB ( '',1.000000000000000000, 1.000000000000000000, 1.000000000000000000 ) ;
#111 = DIRECTION ( 'NONE',  ( 1.000000000000000000, 0.0000000000000000000, 0.0000000000000000000 ) ) ;
#112 = PRESENTATION_STYLE_ASSIGNMENT (( #109 ) ) ;
#113 = CARTESIAN_POINT ( 'NONE',  ( 36.44599357691348000, 29.62529673381063200, 2.299999999999999800 ) ) ;
#114 = AXIS2_PLACEMENT_3D ( 'NONE', #182, #47, #111 ) ;
#115 = FACE_OUTER_BOUND ( 'NONE', #93, .T. ) ;
#116 = ORIENTED_EDGE ( 'NONE', *, *, #58, .T. ) ;
#117 = CARTESIAN_POINT ( 'NONE',  ( 50.44599357691348000, 19.62529673381063600, 0.0000000000000000000 ) ) ;
#118 = EDGE_LOOP ( 'NONE', ( #4, #1, #68, #77 ) ) ;
#119 = AXIS2_PLACEMENT_3D ( 'NONE', #89, #92, #43 ) ;
#120 = CARTESIAN_POINT ( 'NONE',  ( 36.44599357691348000, 29.62529673381063200, 2.299999999999999800 ) ) ;
#121 = CARTESIAN_POINT ( 'NONE',  ( 36.44599357691348000, 29.62529673381063200, 2.299999999999999800 ) ) ;
#122 = LINE ( 'NONE', #73, #105 ) ;
#123 = PLANE ( 'NONE',  #202 ) ;
#124 = UNCERTAINTY_MEASURE_WITH_UNIT (LENGTH_MEASURE( 1.000000000000000100E-005 ), #33, 'distance_accuracy_value', 'NONE');
#125 = APPLICATION_CONTEXT ( 'automotive_design' ) ;
#126 = ORIENTED_EDGE ( 'NONE', *, *, #86, .T. ) ;
#127 = EDGE_CURVE ( 'NONE', #54, #134, #165, .T. ) ;
#128 = VECTOR ( 'NONE', #152, 1000.000000000000000 ) ;
#129 = EDGE_CURVE ( 'NONE', #2, #102, #57, .T. ) ;
#130 = AXIS2_PLACEMENT_3D ( 'NONE', #164, #91, #137 ) ;
#131 = SURFACE_STYLE_FILL_AREA ( #133 ) ;
#132 = DIRECTION ( 'NONE',  ( 0.0000000000000000000, -1.000000000000000000, 0.0000000000000000000 ) ) ;
#133 = FILL_AREA_STYLE ('',( #145 ) ) ;
#134 = VERTEX_POINT ( 'NONE', #8 ) ;
#135 = AXIS2_PLACEMENT_3D ( 'NONE', #173, #60, #71 ) ;
#136 = VECTOR ( 'NONE', #156, 1000.000000000000000 ) ;
#137 = DIRECTION ( 'NONE',  ( -1.000000000000000000, 2.478176394252582100E-016, 0.0000000000000000000 ) ) ;
#138 = FILL_AREA_STYLE_COLOUR ( '', #110 ) ;
#139 = ORIENTED_EDGE ( 'NONE', *, *, #34, .F. ) ;
#140 = DIRECTION ( 'NONE',  ( 1.000000000000000000, -2.478176394252582100E-016, 0.0000000000000000000 ) ) ;
#141 = APPLICATION_PROTOCOL_DEFINITION ( 'draft international standard', 'automotive_design', 1998, #96 ) ;
#142 = MECHANICAL_DESIGN_GEOMETRIC_PRESENTATION_REPRESENTATION (  '', ( #88 ), #55 ) ;
#143 = CARTESIAN_POINT ( 'NONE',  ( 36.44599357691348000, 29.62529673381063200, 2.299999999999999800 ) ) ;
#144 = ORIENTED_EDGE ( 'NONE', *, *, #78, .T. ) ;
#145 = FILL_AREA_STYLE_COLOUR ( '', #170 ) ;
#146 = VECTOR ( 'NONE', #63, 1000.000000000000000 ) ;
#147 = LINE ( 'NONE', #40, #81 ) ;
#148 = CARTESIAN_POINT ( 'NONE',  ( 36.44599357691348000, 29.62529673381063200, 2.299999999999999800 ) ) ;
#149 = DIRECTION ( 'NONE',  ( -0.0000000000000000000, -0.0000000000000000000, -1.000000000000000000 ) ) ;
#150 = CARTESIAN_POINT ( 'NONE',  ( 36.44599357691348000, 19.62529673381063900, 2.299999999999999800 ) ) ;
#151 = PLANE ( 'NONE',  #130 ) ;
#152 = DIRECTION ( 'NONE',  ( 1.000000000000000000, -2.478176394252582100E-016, 0.0000000000000000000 ) ) ;
#153 = DIRECTION ( 'NONE',  ( 2.478176394252580600E-016, -1.000000000000000000, 0.0000000000000000000 ) ) ;
#154 = ORIENTED_EDGE ( 'NONE', *, *, #192, .F. ) ;
#155 = VECTOR ( 'NONE', #64, 1000.000000000000000 ) ;
#156 = DIRECTION ( 'NONE',  ( 6.938893903907229400E-016, 1.000000000000000000, -0.0000000000000000000 ) ) ;
#157 = VECTOR ( 'NONE', #180, 1000.000000000000000 ) ;
#158 = PRESENTATION_STYLE_ASSIGNMENT (( #18 ) ) ;
#159 = PRODUCT_RELATED_PRODUCT_CATEGORY ( 'part', '', ( #181 ) ) ;
#160 = PLANE ( 'NONE',  #135 ) ;
#161 = SURFACE_SIDE_STYLE ('',( #69 ) ) ;
#162 = ADVANCED_FACE ( 'NONE', ( #99 ), #172, .F. ) ;
#163 = ADVANCED_FACE ( 'NONE', ( #194 ), #151, .F. ) ;
#164 = CARTESIAN_POINT ( 'NONE',  ( 36.44599357691348000, 19.62529673381063900, 2.299999999999999800 ) ) ;
#165 = LINE ( 'NONE', #24, #128 ) ;
#166 = ORIENTED_EDGE ( 'NONE', *, *, #51, .T. ) ;
#167 = CARTESIAN_POINT ( 'NONE',  ( 50.44599357691348000, 29.62529673381063600, 0.0000000000000000000 ) ) ;
#168 = STYLED_ITEM ( 'NONE', ( #158 ), #9 ) ;
#169 = FACE_OUTER_BOUND ( 'NONE', #50, .T. ) ;
#170 = COLOUR_RGB ( '',1.000000000000000000, 1.000000000000000000, 1.000000000000000000 ) ;
#171 = ORIENTED_EDGE ( 'NONE', *, *, #65, .T. ) ;
#172 = PLANE ( 'NONE',  #37 ) ;
#173 = CARTESIAN_POINT ( 'NONE',  ( 0.0000000000000000000, 0.0000000000000000000, 2.299999999999999800 ) ) ;
#174 = LINE ( 'NONE', #179, #146 ) ;
#175 = ORIENTED_EDGE ( 'NONE', *, *, #21, .F. ) ;
#176 = LINE ( 'NONE', #41, #136 ) ;
#177 = ORIENTED_EDGE ( 'NONE', *, *, #127, .T. ) ;
#178 = MECHANICAL_DESIGN_GEOMETRIC_PRESENTATION_REPRESENTATION (  '', ( #168 ), #195 ) ;
#179 = CARTESIAN_POINT ( 'NONE',  ( 50.44599357691348000, 19.62529673381063600, 2.299999999999999800 ) ) ;
#180 = DIRECTION ( 'NONE',  ( -0.0000000000000000000, -0.0000000000000000000, -1.000000000000000000 ) ) ;
#181 = PRODUCT ( '302506', '302506', '', ( #94 ) ) ;
#182 = CARTESIAN_POINT ( 'NONE',  ( 0.0000000000000000000, 0.0000000000000000000, 0.0000000000000000000 ) ) ;
#183 = FACE_OUTER_BOUND ( 'NONE', #45, .T. ) ;
#184 = SHAPE_DEFINITION_REPRESENTATION ( #16, #190 ) ;
#185 =( NAMED_UNIT ( * ) PLANE_ANGLE_UNIT ( ) SI_UNIT ( $, .RADIAN. ) );
#186 = LINE ( 'NONE', #150, #157 ) ;
#187 = VERTEX_POINT ( 'NONE', #167 ) ;
#188 =( NAMED_UNIT ( * ) PLANE_ANGLE_UNIT ( ) SI_UNIT ( $, .RADIAN. ) );
#189 = SURFACE_SIDE_STYLE ('',( #131 ) ) ;
#190 = ADVANCED_BREP_SHAPE_REPRESENTATION ( '302506', ( #9, #114 ), #5 ) ;
#191 = CARTESIAN_POINT ( 'NONE',  ( 36.44599357691348000, 29.62529673381063200, 0.0000000000000000000 ) ) ;
#192 = EDGE_CURVE ( 'NONE', #14, #83, #35, .T. ) ;
#193 = DIRECTION ( 'NONE',  ( -6.938893903907229400E-016, -1.000000000000000000, 0.0000000000000000000 ) ) ;
#194 = FACE_OUTER_BOUND ( 'NONE', #118, .T. ) ;
#195 =( GEOMETRIC_REPRESENTATION_CONTEXT ( 3 ) GLOBAL_UNCERTAINTY_ASSIGNED_CONTEXT ( ( #90 ) ) GLOBAL_UNIT_ASSIGNED_CONTEXT ( ( #100, #188, #15 ) ) REPRESENTATION_CONTEXT ( 'NONE', 'WORKASPACE' ) );
#196 = DIRECTION ( 'NONE',  ( -1.000000000000000000, -2.478176394252580600E-016, -0.0000000000000000000 ) ) ;
#197 =( NAMED_UNIT ( * ) SI_UNIT ( $, .STERADIAN. ) SOLID_ANGLE_UNIT ( ) );
#198 = ORIENTED_EDGE ( 'NONE', *, *, #65, .F. ) ;
#199 =( LENGTH_UNIT ( ) NAMED_UNIT ( * ) SI_UNIT ( .MILLI., .METRE. ) );
#200 = ADVANCED_FACE ( 'NONE', ( #169 ), #123, .F. ) ;
#201 = CARTESIAN_POINT ( 'NONE',  ( 36.44599357691348000, 19.62529673381063900, 0.0000000000000000000 ) ) ;
#202 = AXIS2_PLACEMENT_3D ( 'NONE', #148, #29, #22 ) ;
ENDSEC;
END-ISO-10303-21;
