ISO-10303-21;
HEADER;
FILE_DESCRIPTION (( 'STEP AP214' ),
    '1' );
FILE_NAME ('290000.STEP',
    '2019-08-12T02:02:01',
    ( '' ),
    ( '' ),
    'SwSTEP 2.0',
    'SolidWorks 2016',
    '' );
FILE_SCHEMA (( 'AUTOMOTIVE_DESIGN' ));
ENDSEC;

DATA;
#1 = CARTESIAN_POINT ( 'NONE',  ( 54.39238298171605400, 44.62887153032210800, -3.469446951953614200E-015 ) ) ;
#2 = CARTESIAN_POINT ( 'NONE',  ( 66.89238298171604000, 32.94888470072432100, -6.000013170402204400 ) ) ;
#3 =( LENGTH_UNIT ( ) NAMED_UNIT ( * ) SI_UNIT ( .MILLI., .METRE. ) );
#4 = APPLICATION_PROTOCOL_DEFINITION ( 'draft international standard', 'automotive_design', 1998, #17 ) ;
#5 = EDGE_CURVE ( 'NONE', #55, #110, #52, .T. ) ;
#6 = PRODUCT_CONTEXT ( 'NONE', #17, 'mechanical' ) ;
#7 = STYLED_ITEM ( 'NONE', ( #145 ), #36 ) ;
#8 = SURFACE_SIDE_STYLE ('',( #72 ) ) ;
#9 = ADVANCED_FACE ( 'NONE', ( #133 ), #89, .T. ) ;
#10 =( GEOMETRIC_REPRESENTATION_CONTEXT ( 3 ) GLOBAL_UNCERTAINTY_ASSIGNED_CONTEXT ( ( #123 ) ) GLOBAL_UNIT_ASSIGNED_CONTEXT ( ( #81, #54, #82 ) ) REPRESENTATION_CONTEXT ( 'NONE', 'WORKASPACE' ) );
#11 = VERTEX_POINT ( 'NONE', #148 ) ;
#12 = CARTESIAN_POINT ( 'NONE',  ( 66.89238298171604000, 32.94888470072432100, -6.000013170402204400 ) ) ;
#13 = CLOSED_SHELL ( 'NONE', ( #33, #34, #84, #9 ) ) ;
#14 = FACE_OUTER_BOUND ( 'NONE', #86, .T. ) ;
#15 = CARTESIAN_POINT ( 'NONE',  ( 41.89238298171605400, 50.62888470072432800, -6.000013170402204400 ) ) ;
#16 = CARTESIAN_POINT ( 'NONE',  ( 54.39238298171605400, 35.78887153032210500, 0.0000000000000000000 ) ) ;
#17 = APPLICATION_CONTEXT ( 'automotive_design' ) ;
#18 = MECHANICAL_DESIGN_GEOMETRIC_PRESENTATION_REPRESENTATION (  '', ( #7 ), #127 ) ;
#19 = CARTESIAN_POINT ( 'NONE',  ( 54.39238298171605400, 44.62887153032210800, 0.0000000000000000000 ) ) ;
#20 = CARTESIAN_POINT ( 'NONE',  ( 54.39238298171605400, 41.78888470072432400, -6.000013170402204400 ) ) ;
#21 = ORIENTED_EDGE ( 'NONE', *, *, #35, .F. ) ;
#22 = PRODUCT_DEFINITION_SHAPE ( 'NONE', 'NONE',  #120 ) ;
#23 = PRODUCT_DEFINITION_FORMATION_WITH_SPECIFIED_SOURCE ( 'ÈÎºÎ', '', #87, .NOT_KNOWN. ) ;
#24 = ORIENTED_EDGE ( 'NONE', *, *, #45, .T. ) ;
#25 =( BOUNDED_CURVE ( )  B_SPLINE_CURVE ( 3, ( #90, #59, #78, #105 ),
 .UNSPECIFIED., .F., .F. ) 
 B_SPLINE_CURVE_WITH_KNOTS ( ( 4, 4 ),
 ( 3.141592653589793100, 6.283185307179586200 ),
 .UNSPECIFIED. ) 
 CURVE ( )  GEOMETRIC_REPRESENTATION_ITEM ( )  RATIONAL_B_SPLINE_CURVE ( ( 1.000000000000000000, 0.3333333333333333700, 0.3333333333333333700, 1.000000000000000000 ) ) 
 REPRESENTATION_ITEM ( '' )  );
#26 = DIRECTION ( 'NONE',  ( 0.0000000000000000000, -0.7071067811865484600, 0.7071067811865465700 ) ) ;
#27 = EDGE_CURVE ( 'NONE', #11, #98, #25, .T. ) ;
#28 = CARTESIAN_POINT ( 'NONE',  ( 66.89238298171604000, 50.62888470072432800, -6.000013170402204400 ) ) ;
#29 = CARTESIAN_POINT ( 'NONE',  ( 54.39238298171605400, 50.62888470072432800, -6.000013170402204400 ) ) ;
#30 = PRODUCT_DEFINITION_CONTEXT ( 'detailed design', #71, 'design' ) ;
#31 = PRESENTATION_LAYER_ASSIGNMENT (  '', '', ( #68 ) ) ;
#32 = ORIENTED_EDGE ( 'NONE', *, *, #58, .F. ) ;
#33 = ADVANCED_FACE ( 'NONE', ( #109 ), #85, .T. ) ;
#34 = ADVANCED_FACE ( 'NONE', ( #14 ), #144, .T. ) ;
#35 = EDGE_CURVE ( 'NONE', #55, #11, #108, .T. ) ;
#36 = ADVANCED_BREP_SHAPE_REPRESENTATION ( '290000', ( #42, #96 ), #10 ) ;
#37 = MECHANICAL_DESIGN_GEOMETRIC_PRESENTATION_REPRESENTATION (  '', ( #68 ), #56 ) ;
#38 =( LENGTH_UNIT ( ) NAMED_UNIT ( * ) SI_UNIT ( .MILLI., .METRE. ) );
#39 = CARTESIAN_POINT ( 'NONE',  ( 54.39238298171605400, 32.94888470072432100, -6.000013170402204400 ) ) ;
#40 = CARTESIAN_POINT ( 'NONE',  ( 66.89238298171604000, 44.62887153032210800, -2.602085213965210200E-015 ) ) ;
#41 = CARTESIAN_POINT ( 'NONE',  ( 41.89238298171605400, 44.62887153032210800, -3.903127820947815200E-015 ) ) ;
#42 = MANIFOLD_SOLID_BREP ( 'Í¹Ì¨-À­Éì2', #13 ) ;
#43 = CARTESIAN_POINT ( 'NONE',  ( 66.89238298171604000, 44.62887153032210800, 0.0000000000000000000 ) ) ;
#44 = DIRECTION ( 'NONE',  ( 0.0000000000000000000, 0.0000000000000000000, 1.000000000000000000 ) ) ;
#45 = EDGE_CURVE ( 'NONE', #110, #55, #57, .T. ) ;
#46 = EDGE_LOOP ( 'NONE', ( #124, #146 ) ) ;
#47 = SURFACE_STYLE_FILL_AREA ( #93 ) ;
#48 = CARTESIAN_POINT ( 'NONE',  ( 41.89238298171605400, 50.62888470072432800, -6.000013170402205300 ) ) ;
#49 =( NAMED_UNIT ( * ) SI_UNIT ( $, .STERADIAN. ) SOLID_ANGLE_UNIT ( ) );
#50 = CARTESIAN_POINT ( 'NONE',  ( 54.39238298171605400, 32.94888470072432100, -6.000013170402204400 ) ) ;
#51 = DIRECTION ( 'NONE',  ( 1.000000000000000000, 0.0000000000000000000, -0.0000000000000000000 ) ) ;
#52 =( BOUNDED_CURVE ( )  B_SPLINE_CURVE ( 3, ( #29, #15, #75, #106 ),
 .UNSPECIFIED., .F., .F. ) 
 B_SPLINE_CURVE_WITH_KNOTS ( ( 4, 4 ),
 ( 3.141592653589793100, 6.283185307179586200 ),
 .UNSPECIFIED. ) 
 CURVE ( )  GEOMETRIC_REPRESENTATION_ITEM ( )  RATIONAL_B_SPLINE_CURVE ( ( 1.000000000000000000, 0.3333333333333333700, 0.3333333333333333700, 1.000000000000000000 ) ) 
 REPRESENTATION_ITEM ( '' )  );
#53 = CARTESIAN_POINT ( 'NONE',  ( 54.39238298171605400, 50.62888470072432800, -6.000013170402204400 ) ) ;
#54 =( NAMED_UNIT ( * ) PLANE_ANGLE_UNIT ( ) SI_UNIT ( $, .RADIAN. ) );
#55 = VERTEX_POINT ( 'NONE', #64 ) ;
#56 =( GEOMETRIC_REPRESENTATION_CONTEXT ( 3 ) GLOBAL_UNCERTAINTY_ASSIGNED_CONTEXT ( ( #134 ) ) GLOBAL_UNIT_ASSIGNED_CONTEXT ( ( #38, #121, #49 ) ) REPRESENTATION_CONTEXT ( 'NONE', 'WORKASPACE' ) );
#57 =( BOUNDED_CURVE ( )  B_SPLINE_CURVE ( 3, ( #39, #2, #122, #53 ),
 .UNSPECIFIED., .F., .F. ) 
 B_SPLINE_CURVE_WITH_KNOTS ( ( 4, 4 ),
 ( 0.0000000000000000000, 3.141592653589793100 ),
 .UNSPECIFIED. ) 
 CURVE ( )  GEOMETRIC_REPRESENTATION_ITEM ( )  RATIONAL_B_SPLINE_CURVE ( ( 1.000000000000000000, 0.3333333333333333700, 0.3333333333333333700, 1.000000000000000000 ) ) 
 REPRESENTATION_ITEM ( '' )  );
#58 = EDGE_CURVE ( 'NONE', #98, #11, #115, .T. ) ;
#59 = CARTESIAN_POINT ( 'NONE',  ( 41.89238298171605400, 44.62887153032210800, 0.0000000000000000000 ) ) ;
#60 = ORIENTED_EDGE ( 'NONE', *, *, #5, .T. ) ;
#61 = VECTOR ( 'NONE', #26, 1000.000000000000000 ) ;
#62 = CARTESIAN_POINT ( 'NONE',  ( 54.39238298171605400, 32.94888470072432100, -6.000013170402205300 ) ) ;
#63 = DIRECTION ( 'NONE',  ( 0.0000000000000000000, 0.0000000000000000000, 1.000000000000000000 ) ) ;
#64 = CARTESIAN_POINT ( 'NONE',  ( 54.39238298171605400, 50.62888470072432800, -6.000013170402204400 ) ) ;
#65 = SURFACE_STYLE_USAGE ( .BOTH. , #8 ) ;
#66 = SHAPE_DEFINITION_REPRESENTATION ( #22, #36 ) ;
#67 = DIRECTION ( 'NONE',  ( 0.0000000000000000000, 0.0000000000000000000, 1.000000000000000000 ) ) ;
#68 = STYLED_ITEM ( 'NONE', ( #132 ), #42 ) ;
#69 = VECTOR ( 'NONE', #80, 1000.000000000000000 ) ;
#70 =( NAMED_UNIT ( * ) PLANE_ANGLE_UNIT ( ) SI_UNIT ( $, .RADIAN. ) );
#71 = APPLICATION_CONTEXT ( 'automotive_design' ) ;
#72 = SURFACE_STYLE_FILL_AREA ( #83 ) ;
#73 = ORIENTED_EDGE ( 'NONE', *, *, #27, .T. ) ;
#74 = AXIS2_PLACEMENT_3D ( 'NONE', #20, #67, #51 ) ;
#75 = CARTESIAN_POINT ( 'NONE',  ( 41.89238298171605400, 32.94888470072432100, -6.000013170402204400 ) ) ;
#76 = ORIENTED_EDGE ( 'NONE', *, *, #35, .T. ) ;
#77 = COLOUR_RGB ( '',1.000000000000000000, 1.000000000000000000, 1.000000000000000000 ) ;
#78 = CARTESIAN_POINT ( 'NONE',  ( 41.89238298171605400, 26.94887153032210500, 0.0000000000000000000 ) ) ;
#79 = FILL_AREA_STYLE_COLOUR ( '', #77 ) ;
#80 = DIRECTION ( 'NONE',  ( 0.0000000000000000000, -0.7071067811865484600, 0.7071067811865465700 ) ) ;
#81 =( LENGTH_UNIT ( ) NAMED_UNIT ( * ) SI_UNIT ( .MILLI., .METRE. ) );
#82 =( NAMED_UNIT ( * ) SI_UNIT ( $, .STERADIAN. ) SOLID_ANGLE_UNIT ( ) );
#83 = FILL_AREA_STYLE ('',( #128 ) ) ;
#84 = ADVANCED_FACE ( 'NONE', ( #102 ), #130, .F. ) ;
#85 =( BOUNDED_SURFACE ( )  B_SPLINE_SURFACE ( 3, 1, ( 
 ( #50, #113 ),
 ( #12, #92 ),
 ( #28, #40 ),
 ( #104, #112 ) ),
 .UNSPECIFIED., .F., .F., .F. ) 
 B_SPLINE_SURFACE_WITH_KNOTS ( ( 4, 4 ),
 ( 2, 2 ),
 ( 0.0000000000000000000, 1.000000000000000000 ),
 ( 0.0000000000000000000, 1.000000000000000000 ),
 .UNSPECIFIED. ) 
 GEOMETRIC_REPRESENTATION_ITEM ( )  RATIONAL_B_SPLINE_SURFACE ( (
 ( 1.000000000000000000, 1.000000000000000000),
 ( 0.3333333333333333700, 0.3333333333333333700),
 ( 0.3333333333333333700, 0.3333333333333333700),
 ( 1.000000000000000000, 1.000000000000000000) ) ) 
 REPRESENTATION_ITEM ( '' )  SURFACE ( )  );
#86 = EDGE_LOOP ( 'NONE', ( #21, #60, #143, #131 ) ) ;
#87 = PRODUCT ( '290000', '290000', '', ( #6 ) ) ;
#88 = COLOUR_RGB ( '',1.000000000000000000, 1.000000000000000000, 1.000000000000000000 ) ;
#89 = PLANE ( 'NONE',  #101 ) ;
#90 = CARTESIAN_POINT ( 'NONE',  ( 54.39238298171605400, 44.62887153032210800, 0.0000000000000000000 ) ) ;
#91 = CARTESIAN_POINT ( 'NONE',  ( 54.39238298171605400, 50.62888470072432800, -6.000013170402204400 ) ) ;
#92 = CARTESIAN_POINT ( 'NONE',  ( 66.89238298171604000, 26.94887153032210500, -2.602085213965210200E-015 ) ) ;
#93 = FILL_AREA_STYLE ('',( #79 ) ) ;
#94 = DIRECTION ( 'NONE',  ( 1.000000000000000000, 0.0000000000000000000, 0.0000000000000000000 ) ) ;
#95 = APPLICATION_PROTOCOL_DEFINITION ( 'draft international standard', 'automotive_design', 1998, #71 ) ;
#96 = AXIS2_PLACEMENT_3D ( 'NONE', #142, #44, #94 ) ;
#97 =( NAMED_UNIT ( * ) SI_UNIT ( $, .STERADIAN. ) SOLID_ANGLE_UNIT ( ) );
#98 = VERTEX_POINT ( 'NONE', #129 ) ;
#99 = UNCERTAINTY_MEASURE_WITH_UNIT (LENGTH_MEASURE( 1.000000000000000100E-005 ), #3, 'distance_accuracy_value', 'NONE');
#100 = ORIENTED_EDGE ( 'NONE', *, *, #58, .T. ) ;
#101 = AXIS2_PLACEMENT_3D ( 'NONE', #16, #63, #139 ) ;
#102 = FACE_OUTER_BOUND ( 'NONE', #46, .T. ) ;
#103 = CARTESIAN_POINT ( 'NONE',  ( 54.39238298171605400, 50.62888470072432800, -6.000013170402205300 ) ) ;
#104 = CARTESIAN_POINT ( 'NONE',  ( 54.39238298171605400, 50.62888470072432800, -6.000013170402204400 ) ) ;
#105 = CARTESIAN_POINT ( 'NONE',  ( 54.39238298171605400, 26.94887153032210500, 0.0000000000000000000 ) ) ;
#106 = CARTESIAN_POINT ( 'NONE',  ( 54.39238298171605400, 32.94888470072432100, -6.000013170402204400 ) ) ;
#107 = CARTESIAN_POINT ( 'NONE',  ( 54.39238298171605400, 32.94888470072432100, -6.000013170402204400 ) ) ;
#108 = LINE ( 'NONE', #91, #61 ) ;
#109 = FACE_OUTER_BOUND ( 'NONE', #135, .T. ) ;
#110 = VERTEX_POINT ( 'NONE', #107 ) ;
#111 = SURFACE_STYLE_USAGE ( .BOTH. , #114 ) ;
#112 = CARTESIAN_POINT ( 'NONE',  ( 54.39238298171605400, 44.62887153032210800, -2.602085213965210600E-015 ) ) ;
#113 = CARTESIAN_POINT ( 'NONE',  ( 54.39238298171605400, 26.94887153032210500, -2.602085213965210600E-015 ) ) ;
#114 = SURFACE_SIDE_STYLE ('',( #47 ) ) ;
#115 =( BOUNDED_CURVE ( )  B_SPLINE_CURVE ( 3, ( #117, #119, #43, #19 ),
 .UNSPECIFIED., .F., .F. ) 
 B_SPLINE_CURVE_WITH_KNOTS ( ( 4, 4 ),
 ( 0.0000000000000000000, 3.141592653589793100 ),
 .UNSPECIFIED. ) 
 CURVE ( )  GEOMETRIC_REPRESENTATION_ITEM ( )  RATIONAL_B_SPLINE_CURVE ( ( 1.000000000000000000, 0.3333333333333333700, 0.3333333333333333700, 1.000000000000000000 ) ) 
 REPRESENTATION_ITEM ( '' )  );
#116 = EDGE_CURVE ( 'NONE', #110, #98, #126, .T. ) ;
#117 = CARTESIAN_POINT ( 'NONE',  ( 54.39238298171605400, 26.94887153032210500, 0.0000000000000000000 ) ) ;
#118 = ORIENTED_EDGE ( 'NONE', *, *, #116, .F. ) ;
#119 = CARTESIAN_POINT ( 'NONE',  ( 66.89238298171604000, 26.94887153032210500, 0.0000000000000000000 ) ) ;
#120 = PRODUCT_DEFINITION ( 'Î´Öª', '', #23, #30 ) ;
#121 =( NAMED_UNIT ( * ) PLANE_ANGLE_UNIT ( ) SI_UNIT ( $, .RADIAN. ) );
#122 = CARTESIAN_POINT ( 'NONE',  ( 66.89238298171604000, 50.62888470072432800, -6.000013170402204400 ) ) ;
#123 = UNCERTAINTY_MEASURE_WITH_UNIT (LENGTH_MEASURE( 1.000000000000000100E-005 ), #81, 'distance_accuracy_value', 'NONE');
#124 = ORIENTED_EDGE ( 'NONE', *, *, #45, .F. ) ;
#125 = CARTESIAN_POINT ( 'NONE',  ( 54.39238298171605400, 32.94888470072432100, -6.000013170402204400 ) ) ;
#126 = LINE ( 'NONE', #125, #69 ) ;
#127 =( GEOMETRIC_REPRESENTATION_CONTEXT ( 3 ) GLOBAL_UNCERTAINTY_ASSIGNED_CONTEXT ( ( #99 ) ) GLOBAL_UNIT_ASSIGNED_CONTEXT ( ( #3, #70, #97 ) ) REPRESENTATION_CONTEXT ( 'NONE', 'WORKASPACE' ) );
#128 = FILL_AREA_STYLE_COLOUR ( '', #88 ) ;
#129 = CARTESIAN_POINT ( 'NONE',  ( 54.39238298171605400, 26.94887153032210500, 0.0000000000000000000 ) ) ;
#130 = PLANE ( 'NONE',  #74 ) ;
#131 = ORIENTED_EDGE ( 'NONE', *, *, #27, .F. ) ;
#132 = PRESENTATION_STYLE_ASSIGNMENT (( #111 ) ) ;
#133 = FACE_OUTER_BOUND ( 'NONE', #137, .T. ) ;
#134 = UNCERTAINTY_MEASURE_WITH_UNIT (LENGTH_MEASURE( 1.000000000000000100E-005 ), #38, 'distance_accuracy_value', 'NONE');
#135 = EDGE_LOOP ( 'NONE', ( #24, #76, #32, #118 ) ) ;
#136 = CARTESIAN_POINT ( 'NONE',  ( 54.39238298171605400, 26.94887153032210500, -3.469446951953614200E-015 ) ) ;
#137 = EDGE_LOOP ( 'NONE', ( #100, #73 ) ) ;
#138 = CARTESIAN_POINT ( 'NONE',  ( 41.89238298171605400, 26.94887153032210500, -3.903127820947815200E-015 ) ) ;
#139 = DIRECTION ( 'NONE',  ( 1.000000000000000000, 0.0000000000000000000, -0.0000000000000000000 ) ) ;
#140 = CARTESIAN_POINT ( 'NONE',  ( 41.89238298171605400, 32.94888470072432100, -6.000013170402205300 ) ) ;
#141 = PRESENTATION_LAYER_ASSIGNMENT (  '', '', ( #7 ) ) ;
#142 = CARTESIAN_POINT ( 'NONE',  ( 0.0000000000000000000, 0.0000000000000000000, 0.0000000000000000000 ) ) ;
#143 = ORIENTED_EDGE ( 'NONE', *, *, #116, .T. ) ;
#144 =( BOUNDED_SURFACE ( )  B_SPLINE_SURFACE ( 3, 1, ( 
 ( #103, #1 ),
 ( #48, #41 ),
 ( #140, #138 ),
 ( #62, #136 ) ),
 .UNSPECIFIED., .F., .F., .T. ) 
 B_SPLINE_SURFACE_WITH_KNOTS ( ( 4, 4 ),
 ( 2, 2 ),
 ( 0.0000000000000000000, 1.000000000000000000 ),
 ( 0.0000000000000000000, 1.000000000000000000 ),
 .UNSPECIFIED. ) 
 GEOMETRIC_REPRESENTATION_ITEM ( )  RATIONAL_B_SPLINE_SURFACE ( (
 ( 1.000000000000000000, 1.000000000000000000),
 ( 0.3333333333333333700, 0.3333333333333333700),
 ( 0.3333333333333333700, 0.3333333333333333700),
 ( 1.000000000000000000, 1.000000000000000000) ) ) 
 REPRESENTATION_ITEM ( '' )  SURFACE ( )  );
#145 = PRESENTATION_STYLE_ASSIGNMENT (( #65 ) ) ;
#146 = ORIENTED_EDGE ( 'NONE', *, *, #5, .F. ) ;
#147 = PRODUCT_RELATED_PRODUCT_CATEGORY ( 'part', '', ( #87 ) ) ;
#148 = CARTESIAN_POINT ( 'NONE',  ( 54.39238298171605400, 44.62887153032210800, 0.0000000000000000000 ) ) ;
ENDSEC;
END-ISO-10303-21;
