ISO-10303-21;
HEADER;
FILE_DESCRIPTION (( 'STEP AP214' ),
    '1' );
FILE_NAME ('290002.STEP',
    '2019-08-12T02:03:18',
    ( '' ),
    ( '' ),
    'SwSTEP 2.0',
    'SolidWorks 2016',
    '' );
FILE_SCHEMA (( 'AUTOMOTIVE_DESIGN' ));
ENDSEC;

DATA;
#1 = EDGE_LOOP ( 'NONE', ( #144, #96 ) ) ;
#2 = CARTESIAN_POINT ( 'NONE',  ( 54.39238298171605400, 61.24887153032209100, 1.734723475976807100E-015 ) ) ;
#3 =( LENGTH_UNIT ( ) NAMED_UNIT ( * ) SI_UNIT ( .MILLI., .METRE. ) );
#4 = COLOUR_RGB ( '',1.000000000000000000, 1.000000000000000000, 1.000000000000000000 ) ;
#5 = CARTESIAN_POINT ( 'NONE',  ( 18.39238298171606800, 73.74910520813790500, -12.50023367781576400 ) ) ;
#6 = APPLICATION_CONTEXT ( 'automotive_design' ) ;
#7 = EDGE_CURVE ( 'NONE', #17, #124, #74, .T. ) ;
#8 = CARTESIAN_POINT ( 'NONE',  ( 54.39238298171605400, 73.74910520813790500, -12.50023367781576200 ) ) ;
#9 = CARTESIAN_POINT ( 'NONE',  ( 54.39238298171605400, 61.24887153032209900, 0.0000000000000000000 ) ) ;
#10 = CARTESIAN_POINT ( 'NONE',  ( 90.39238298171604000, 73.74910520813790500, -12.50023367781576600 ) ) ;
#11 = SURFACE_STYLE_USAGE ( .BOTH. , #117 ) ;
#12 = CARTESIAN_POINT ( 'NONE',  ( 90.39238298171604000, 22.82910520813791100, -12.50023367781576600 ) ) ;
#13 = ORIENTED_EDGE ( 'NONE', *, *, #38, .F. ) ;
#14 = UNCERTAINTY_MEASURE_WITH_UNIT (LENGTH_MEASURE( 1.000000000000000100E-005 ), #127, 'distance_accuracy_value', 'NONE');
#15 = PLANE ( 'NONE',  #26 ) ;
#16 =( BOUNDED_CURVE ( )  B_SPLINE_CURVE ( 3, ( #78, #102, #146, #98 ),
 .UNSPECIFIED., .F., .T. ) 
 B_SPLINE_CURVE_WITH_KNOTS ( ( 4, 4 ),
 ( 3.141592653589793100, 6.283185307179586200 ),
 .UNSPECIFIED. ) 
 CURVE ( )  GEOMETRIC_REPRESENTATION_ITEM ( )  RATIONAL_B_SPLINE_CURVE ( ( 1.000000000000000000, 0.3333333333333333700, 0.3333333333333333700, 1.000000000000000000 ) ) 
 REPRESENTATION_ITEM ( '' )  );
#17 = VERTEX_POINT ( 'NONE', #67 ) ;
#18 =( NAMED_UNIT ( * ) SI_UNIT ( $, .STERADIAN. ) SOLID_ANGLE_UNIT ( ) );
#19 = CARTESIAN_POINT ( 'NONE',  ( 54.39238298171605400, 22.82910520813791800, -12.50023367781576400 ) ) ;
#20 = CARTESIAN_POINT ( 'NONE',  ( 54.39238298171605400, 10.32887153032210700, 0.0000000000000000000 ) ) ;
#21 = COLOUR_RGB ( '',1.000000000000000000, 1.000000000000000000, 1.000000000000000000 ) ;
#22 = STYLED_ITEM ( 'NONE', ( #109 ), #131 ) ;
#23 = VECTOR ( 'NONE', #46, 1000.000000000000000 ) ;
#24 = ORIENTED_EDGE ( 'NONE', *, *, #108, .F. ) ;
#25 = VERTEX_POINT ( 'NONE', #65 ) ;
#26 = AXIS2_PLACEMENT_3D ( 'NONE', #40, #53, #30 ) ;
#27 = CARTESIAN_POINT ( 'NONE',  ( 54.39238298171605400, 73.74910520813790500, -12.50023367781576200 ) ) ;
#28 = SURFACE_STYLE_FILL_AREA ( #80 ) ;
#29 = LINE ( 'NONE', #71, #23 ) ;
#30 = DIRECTION ( 'NONE',  ( 1.000000000000000000, 0.0000000000000000000, -0.0000000000000000000 ) ) ;
#31 = CARTESIAN_POINT ( 'NONE',  ( 54.39238298171605400, 61.24887153032210600, 0.0000000000000000000 ) ) ;
#32 = FILL_AREA_STYLE ('',( #43 ) ) ;
#33 = CARTESIAN_POINT ( 'NONE',  ( 18.39238298171606800, 61.24887153032210600, 0.0000000000000000000 ) ) ;
#34 = PRESENTATION_LAYER_ASSIGNMENT (  '', '', ( #22 ) ) ;
#35 = MECHANICAL_DESIGN_GEOMETRIC_PRESENTATION_REPRESENTATION (  '', ( #64 ), #76 ) ;
#36 = SHAPE_DEFINITION_REPRESENTATION ( #63, #145 ) ;
#37 = ORIENTED_EDGE ( 'NONE', *, *, #7, .F. ) ;
#38 = EDGE_CURVE ( 'NONE', #17, #25, #69, .T. ) ;
#39 = PRODUCT_DEFINITION_CONTEXT ( 'detailed design', #59, 'design' ) ;
#40 = CARTESIAN_POINT ( 'NONE',  ( 54.39238298171605400, 48.28910520813791900, -12.50023367781576200 ) ) ;
#41 = CARTESIAN_POINT ( 'NONE',  ( 54.39238298171605400, 22.82910520813791800, -12.50023367781576200 ) ) ;
#42 =( GEOMETRIC_REPRESENTATION_CONTEXT ( 3 ) GLOBAL_UNCERTAINTY_ASSIGNED_CONTEXT ( ( #101 ) ) GLOBAL_UNIT_ASSIGNED_CONTEXT ( ( #56, #140, #142 ) ) REPRESENTATION_CONTEXT ( 'NONE', 'WORKASPACE' ) );
#43 = FILL_AREA_STYLE_COLOUR ( '', #4 ) ;
#44 = CARTESIAN_POINT ( 'NONE',  ( 54.39238298171605400, 73.74910520813790500, -12.50023367781576400 ) ) ;
#45 = CARTESIAN_POINT ( 'NONE',  ( 54.39238298171605400, 10.32887153032210900, 0.0000000000000000000 ) ) ;
#46 = DIRECTION ( 'NONE',  ( 0.0000000000000000000, -0.7071067811865489100, 0.7071067811865462400 ) ) ;
#47 =( BOUNDED_SURFACE ( )  B_SPLINE_SURFACE ( 3, 1, ( 
 ( #94, #9 ),
 ( #5, #83 ),
 ( #92, #84 ),
 ( #106, #20 ) ),
 .UNSPECIFIED., .F., .F., .F. ) 
 B_SPLINE_SURFACE_WITH_KNOTS ( ( 4, 4 ),
 ( 2, 2 ),
 ( 0.0000000000000000000, 1.000000000000000000 ),
 ( 0.0000000000000000000, 1.000000000000000000 ),
 .UNSPECIFIED. ) 
 GEOMETRIC_REPRESENTATION_ITEM ( )  RATIONAL_B_SPLINE_SURFACE ( (
 ( 1.000000000000000000, 1.000000000000000000),
 ( 0.3333333333333333700, 0.3333333333333333700),
 ( 0.3333333333333333700, 0.3333333333333333700),
 ( 1.000000000000000000, 1.000000000000000000) ) ) 
 REPRESENTATION_ITEM ( '' )  SURFACE ( )  );
#48 = FACE_OUTER_BOUND ( 'NONE', #130, .T. ) ;
#49 = PRESENTATION_LAYER_ASSIGNMENT (  '', '', ( #64 ) ) ;
#50 = EDGE_CURVE ( 'NONE', #124, #17, #54, .T. ) ;
#51 = VECTOR ( 'NONE', #137, 1000.000000000000000 ) ;
#52 = ORIENTED_EDGE ( 'NONE', *, *, #50, .T. ) ;
#53 = DIRECTION ( 'NONE',  ( 0.0000000000000000000, 0.0000000000000000000, 1.000000000000000000 ) ) ;
#54 =( BOUNDED_CURVE ( )  B_SPLINE_CURVE ( 3, ( #100, #55, #99, #27 ),
 .UNSPECIFIED., .F., .T. ) 
 B_SPLINE_CURVE_WITH_KNOTS ( ( 4, 4 ),
 ( 3.141592653589793100, 6.283185307179586200 ),
 .UNSPECIFIED. ) 
 CURVE ( )  GEOMETRIC_REPRESENTATION_ITEM ( )  RATIONAL_B_SPLINE_CURVE ( ( 1.000000000000000000, 0.3333333333333333700, 0.3333333333333333700, 1.000000000000000000 ) ) 
 REPRESENTATION_ITEM ( '' )  );
#55 = CARTESIAN_POINT ( 'NONE',  ( 90.39238298171604000, 22.82910520813791100, -12.50023367781576400 ) ) ;
#56 =( LENGTH_UNIT ( ) NAMED_UNIT ( * ) SI_UNIT ( .MILLI., .METRE. ) );
#57 = CARTESIAN_POINT ( 'NONE',  ( 54.39238298171605400, 10.32887153032210600, 1.734723475976807100E-015 ) ) ;
#58 = DIRECTION ( 'NONE',  ( 1.000000000000000000, 0.0000000000000000000, 0.0000000000000000000 ) ) ;
#59 = APPLICATION_CONTEXT ( 'automotive_design' ) ;
#60 = AXIS2_PLACEMENT_3D ( 'NONE', #75, #148, #115 ) ;
#61 = ORIENTED_EDGE ( 'NONE', *, *, #62, .F. ) ;
#62 = EDGE_CURVE ( 'NONE', #112, #25, #16, .T. ) ;
#63 = PRODUCT_DEFINITION_SHAPE ( 'NONE', 'NONE',  #143 ) ;
#64 = STYLED_ITEM ( 'NONE', ( #104 ), #145 ) ;
#65 = CARTESIAN_POINT ( 'NONE',  ( 54.39238298171605400, 61.24887153032210600, 0.0000000000000000000 ) ) ;
#66 = FACE_OUTER_BOUND ( 'NONE', #79, .T. ) ;
#67 = CARTESIAN_POINT ( 'NONE',  ( 54.39238298171605400, 73.74910520813790500, -12.50023367781576200 ) ) ;
#68 = SURFACE_SIDE_STYLE ('',( #28 ) ) ;
#69 = LINE ( 'NONE', #147, #51 ) ;
#70 = CARTESIAN_POINT ( 'NONE',  ( 90.39238298171604000, 61.24887153032209100, 2.602085213965210200E-015 ) ) ;
#71 = CARTESIAN_POINT ( 'NONE',  ( 54.39238298171605400, 22.82910520813791800, -12.50023367781576200 ) ) ;
#72 = APPLICATION_PROTOCOL_DEFINITION ( 'draft international standard', 'automotive_design', 1998, #59 ) ;
#73 = SURFACE_STYLE_FILL_AREA ( #32 ) ;
#74 =( BOUNDED_CURVE ( )  B_SPLINE_CURVE ( 3, ( #8, #88, #126, #41 ),
 .UNSPECIFIED., .F., .T. ) 
 B_SPLINE_CURVE_WITH_KNOTS ( ( 4, 4 ),
 ( 0.0000000000000000000, 3.141592653589793100 ),
 .UNSPECIFIED. ) 
 CURVE ( )  GEOMETRIC_REPRESENTATION_ITEM ( )  RATIONAL_B_SPLINE_CURVE ( ( 1.000000000000000000, 0.3333333333333333700, 0.3333333333333333700, 1.000000000000000000 ) ) 
 REPRESENTATION_ITEM ( '' )  );
#75 = CARTESIAN_POINT ( 'NONE',  ( 54.39238298171605400, 35.78887153032210500, 0.0000000000000000000 ) ) ;
#76 =( GEOMETRIC_REPRESENTATION_CONTEXT ( 3 ) GLOBAL_UNCERTAINTY_ASSIGNED_CONTEXT ( ( #89 ) ) GLOBAL_UNIT_ASSIGNED_CONTEXT ( ( #3, #90, #18 ) ) REPRESENTATION_CONTEXT ( 'NONE', 'WORKASPACE' ) );
#77 = PLANE ( 'NONE',  #60 ) ;
#78 = CARTESIAN_POINT ( 'NONE',  ( 54.39238298171605400, 10.32887153032210900, 0.0000000000000000000 ) ) ;
#79 = EDGE_LOOP ( 'NONE', ( #37, #121 ) ) ;
#80 = FILL_AREA_STYLE ('',( #103 ) ) ;
#81 = PRODUCT ( '290002', '290002', '', ( #111 ) ) ;
#82 = SURFACE_STYLE_USAGE ( .BOTH. , #68 ) ;
#83 = CARTESIAN_POINT ( 'NONE',  ( 18.39238298171606800, 61.24887153032209100, 0.0000000000000000000 ) ) ;
#84 = CARTESIAN_POINT ( 'NONE',  ( 18.39238298171606800, 10.32887153032211300, 0.0000000000000000000 ) ) ;
#85 = CARTESIAN_POINT ( 'NONE',  ( 18.39238298171606800, 10.32887153032211600, 0.0000000000000000000 ) ) ;
#86 = ADVANCED_FACE ( 'NONE', ( #125 ), #77, .T. ) ;
#87 =( BOUNDED_CURVE ( )  B_SPLINE_CURVE ( 3, ( #31, #33, #85, #45 ),
 .UNSPECIFIED., .F., .F. ) 
 B_SPLINE_CURVE_WITH_KNOTS ( ( 4, 4 ),
 ( 0.0000000000000000000, 3.141592653589793100 ),
 .UNSPECIFIED. ) 
 CURVE ( )  GEOMETRIC_REPRESENTATION_ITEM ( )  RATIONAL_B_SPLINE_CURVE ( ( 1.000000000000000000, 0.3333333333333333700, 0.3333333333333333700, 1.000000000000000000 ) ) 
 REPRESENTATION_ITEM ( '' )  );
#88 = CARTESIAN_POINT ( 'NONE',  ( 18.39238298171606800, 73.74910520813790500, -12.50023367781576400 ) ) ;
#89 = UNCERTAINTY_MEASURE_WITH_UNIT (LENGTH_MEASURE( 1.000000000000000100E-005 ), #3, 'distance_accuracy_value', 'NONE');
#90 =( NAMED_UNIT ( * ) PLANE_ANGLE_UNIT ( ) SI_UNIT ( $, .RADIAN. ) );
#91 = EDGE_LOOP ( 'NONE', ( #110, #122, #24, #13 ) ) ;
#92 = CARTESIAN_POINT ( 'NONE',  ( 18.39238298171606800, 22.82910520813792500, -12.50023367781576400 ) ) ;
#93 = CARTESIAN_POINT ( 'NONE',  ( 54.39238298171605400, 22.82910520813791800, -12.50023367781576200 ) ) ;
#94 = CARTESIAN_POINT ( 'NONE',  ( 54.39238298171605400, 73.74910520813790500, -12.50023367781576200 ) ) ;
#95 =( BOUNDED_SURFACE ( )  B_SPLINE_SURFACE ( 3, 1, ( 
 ( #19, #57 ),
 ( #12, #119 ),
 ( #10, #70 ),
 ( #44, #2 ) ),
 .UNSPECIFIED., .F., .F., .F. ) 
 B_SPLINE_SURFACE_WITH_KNOTS ( ( 4, 4 ),
 ( 2, 2 ),
 ( 0.0000000000000000000, 1.000000000000000000 ),
 ( 0.0000000000000000000, 1.000000000000000000 ),
 .UNSPECIFIED. ) 
 GEOMETRIC_REPRESENTATION_ITEM ( )  RATIONAL_B_SPLINE_SURFACE ( (
 ( 1.000000000000000000, 1.000000000000000000),
 ( 0.3333333333333333700, 0.3333333333333333700),
 ( 0.3333333333333333700, 0.3333333333333333700),
 ( 1.000000000000000000, 1.000000000000000000) ) ) 
 REPRESENTATION_ITEM ( '' )  SURFACE ( )  );
#96 = ORIENTED_EDGE ( 'NONE', *, *, #62, .T. ) ;
#97 = ORIENTED_EDGE ( 'NONE', *, *, #132, .F. ) ;
#98 = CARTESIAN_POINT ( 'NONE',  ( 54.39238298171605400, 61.24887153032210600, 0.0000000000000000000 ) ) ;
#99 = CARTESIAN_POINT ( 'NONE',  ( 90.39238298171604000, 73.74910520813790500, -12.50023367781576400 ) ) ;
#100 = CARTESIAN_POINT ( 'NONE',  ( 54.39238298171605400, 22.82910520813791800, -12.50023367781576200 ) ) ;
#101 = UNCERTAINTY_MEASURE_WITH_UNIT (LENGTH_MEASURE( 1.000000000000000100E-005 ), #56, 'distance_accuracy_value', 'NONE');
#102 = CARTESIAN_POINT ( 'NONE',  ( 90.39238298171604000, 10.32887153032210200, 0.0000000000000000000 ) ) ;
#103 = FILL_AREA_STYLE_COLOUR ( '', #21 ) ;
#104 = PRESENTATION_STYLE_ASSIGNMENT (( #82 ) ) ;
#105 = ADVANCED_FACE ( 'NONE', ( #66 ), #15, .F. ) ;
#106 = CARTESIAN_POINT ( 'NONE',  ( 54.39238298171605400, 22.82910520813791800, -12.50023367781576200 ) ) ;
#107 = APPLICATION_PROTOCOL_DEFINITION ( 'draft international standard', 'automotive_design', 1998, #6 ) ;
#108 = EDGE_CURVE ( 'NONE', #25, #112, #87, .T. ) ;
#109 = PRESENTATION_STYLE_ASSIGNMENT (( #11 ) ) ;
#110 = ORIENTED_EDGE ( 'NONE', *, *, #7, .T. ) ;
#111 = PRODUCT_CONTEXT ( 'NONE', #6, 'mechanical' ) ;
#112 = VERTEX_POINT ( 'NONE', #114 ) ;
#113 =( GEOMETRIC_REPRESENTATION_CONTEXT ( 3 ) GLOBAL_UNCERTAINTY_ASSIGNED_CONTEXT ( ( #14 ) ) GLOBAL_UNIT_ASSIGNED_CONTEXT ( ( #127, #128, #139 ) ) REPRESENTATION_CONTEXT ( 'NONE', 'WORKASPACE' ) );
#114 = CARTESIAN_POINT ( 'NONE',  ( 54.39238298171605400, 10.32887153032210900, 0.0000000000000000000 ) ) ;
#115 = DIRECTION ( 'NONE',  ( 1.000000000000000000, 0.0000000000000000000, -0.0000000000000000000 ) ) ;
#116 = ORIENTED_EDGE ( 'NONE', *, *, #38, .T. ) ;
#117 = SURFACE_SIDE_STYLE ('',( #73 ) ) ;
#118 = DIRECTION ( 'NONE',  ( 0.0000000000000000000, 0.0000000000000000000, 1.000000000000000000 ) ) ;
#119 = CARTESIAN_POINT ( 'NONE',  ( 90.39238298171604000, 10.32887153032209900, 2.602085213965210200E-015 ) ) ;
#120 = PRODUCT_DEFINITION_FORMATION_WITH_SPECIFIED_SOURCE ( 'ÈÎºÎ', '', #81, .NOT_KNOWN. ) ;
#121 = ORIENTED_EDGE ( 'NONE', *, *, #50, .F. ) ;
#122 = ORIENTED_EDGE ( 'NONE', *, *, #132, .T. ) ;
#123 = AXIS2_PLACEMENT_3D ( 'NONE', #141, #118, #58 ) ;
#124 = VERTEX_POINT ( 'NONE', #93 ) ;
#125 = FACE_OUTER_BOUND ( 'NONE', #1, .T. ) ;
#126 = CARTESIAN_POINT ( 'NONE',  ( 18.39238298171606800, 22.82910520813792500, -12.50023367781576400 ) ) ;
#127 =( LENGTH_UNIT ( ) NAMED_UNIT ( * ) SI_UNIT ( .MILLI., .METRE. ) );
#128 =( NAMED_UNIT ( * ) PLANE_ANGLE_UNIT ( ) SI_UNIT ( $, .RADIAN. ) );
#129 = ADVANCED_FACE ( 'NONE', ( #48 ), #95, .T. ) ;
#130 = EDGE_LOOP ( 'NONE', ( #97, #52, #116, #61 ) ) ;
#131 = MANIFOLD_SOLID_BREP ( 'Í¹Ì¨-À­Éì2', #134 ) ;
#132 = EDGE_CURVE ( 'NONE', #124, #112, #29, .T. ) ;
#133 = MECHANICAL_DESIGN_GEOMETRIC_PRESENTATION_REPRESENTATION (  '', ( #22 ), #113 ) ;
#134 = CLOSED_SHELL ( 'NONE', ( #138, #129, #105, #86 ) ) ;
#135 = PRODUCT_RELATED_PRODUCT_CATEGORY ( 'part', '', ( #81 ) ) ;
#136 = FACE_OUTER_BOUND ( 'NONE', #91, .T. ) ;
#137 = DIRECTION ( 'NONE',  ( 0.0000000000000000000, -0.7071067811865489100, 0.7071067811865462400 ) ) ;
#138 = ADVANCED_FACE ( 'NONE', ( #136 ), #47, .T. ) ;
#139 =( NAMED_UNIT ( * ) SI_UNIT ( $, .STERADIAN. ) SOLID_ANGLE_UNIT ( ) );
#140 =( NAMED_UNIT ( * ) PLANE_ANGLE_UNIT ( ) SI_UNIT ( $, .RADIAN. ) );
#141 = CARTESIAN_POINT ( 'NONE',  ( 0.0000000000000000000, 0.0000000000000000000, 0.0000000000000000000 ) ) ;
#142 =( NAMED_UNIT ( * ) SI_UNIT ( $, .STERADIAN. ) SOLID_ANGLE_UNIT ( ) );
#143 = PRODUCT_DEFINITION ( 'Î´Öª', '', #120, #39 ) ;
#144 = ORIENTED_EDGE ( 'NONE', *, *, #108, .T. ) ;
#145 = ADVANCED_BREP_SHAPE_REPRESENTATION ( '290002', ( #131, #123 ), #42 ) ;
#146 = CARTESIAN_POINT ( 'NONE',  ( 90.39238298171604000, 61.24887153032210600, 0.0000000000000000000 ) ) ;
#147 = CARTESIAN_POINT ( 'NONE',  ( 54.39238298171605400, 73.74910520813790500, -12.50023367781576200 ) ) ;
#148 = DIRECTION ( 'NONE',  ( 0.0000000000000000000, 0.0000000000000000000, 1.000000000000000000 ) ) ;
ENDSEC;
END-ISO-10303-21;
