ISO-10303-21;
HEADER;
FILE_DESCRIPTION (( 'STEP AP203' ),
    '1' );
FILE_NAME ('160001.STEP',
    '2019-06-05T05:36:34',
    ( '' ),
    ( '' ),
    'SwSTEP 2.0',
    'SolidWorks 2016',
    '' );
FILE_SCHEMA (( 'CONFIG_CONTROL_DESIGN' ));
ENDSEC;

DATA;
#1 = PERSON_AND_ORGANIZATION ( #141, #126 ) ;
#2 = CC_DESIGN_DATE_AND_TIME_ASSIGNMENT ( #106, #11, ( #165 ) ) ;
#3 = SECURITY_CLASSIFICATION ( '', '', #80 ) ;
#4 = DIRECTION ( 'NONE',  ( 0.0000000000000000000, 0.0000000000000000000, 1.000000000000000000 ) ) ;
#5 = PRODUCT_DEFINITION ( 'Î´Öª', '', #65, #133 ) ;
#6 = AXIS2_PLACEMENT_3D ( 'NONE', #56, #103, #58 ) ;
#7 = CC_DESIGN_PERSON_AND_ORGANIZATION_ASSIGNMENT ( #177, #77, ( #3 ) ) ;
#8 = CALENDAR_DATE ( 2019, 5, 6 ) ;
#9 = DATE_AND_TIME ( #178, #167 ) ;
#10 = CC_DESIGN_DATE_AND_TIME_ASSIGNMENT ( #51, #179, ( #18 ) ) ;
#11 = DATE_TIME_ROLE ( 'classification_date' ) ;
#12 = MECHANICAL_CONTEXT ( 'NONE', #145, 'mechanical' ) ;
#13 = APPLICATION_PROTOCOL_DEFINITION ( 'international standard', 'config_control_design', 1994, #81 ) ;
#14 = CC_DESIGN_APPROVAL ( #79, ( #107 ) ) ;
#15 = APPROVAL_PERSON_ORGANIZATION ( #61, #101, #200 ) ;
#16 = FACE_OUTER_BOUND ( 'NONE', #187, .T. ) ;
#17 = CLOSED_SHELL ( 'NONE', ( #73, #176 ) ) ;
#18 = PRODUCT_DEFINITION ( 'Î´Öª', '', #107, #42 ) ;
#19 = DATE_AND_TIME ( #8, #196 ) ;
#20 = CALENDAR_DATE ( 2019, 5, 6 ) ;
#21 = DIRECTION ( 'NONE',  ( 0.0000000000000000000, 0.0000000000000000000, 1.000000000000000000 ) ) ;
#22 = DATE_AND_TIME ( #185, #25 ) ;
#23 = APPROVAL_PERSON_ORGANIZATION ( #60, #79, #48 ) ;
#24 = ORIENTED_EDGE ( 'NONE', *, *, #161, .F. ) ;
#25 = LOCAL_TIME ( 13, 36, 34.00000000000000000, #123 ) ;
#26 = APPROVAL ( #182, 'Î´Ö¸¶¨' ) ;
#27 = PRODUCT_DEFINITION_SHAPE ( 'NONE', 'NONE',  #18 ) ;
#28 = PERSON_AND_ORGANIZATION ( #141, #126 ) ;
#29 = ORIENTED_EDGE ( 'NONE', *, *, #161, .T. ) ;
#30 = PERSON_AND_ORGANIZATION_ROLE ( 'design_supplier' ) ;
#31 = APPROVAL ( #110, 'Î´Ö¸¶¨' ) ;
#32 = DATE_TIME_ROLE ( 'creation_date' ) ;
#33 = APPLICATION_PROTOCOL_DEFINITION ( 'international standard', 'config_control_design', 1994, #183 ) ;
#34 = AXIS2_PLACEMENT_3D ( 'NONE', #104, #4, #63 ) ;
#35 = PRODUCT_DEFINITION_SHAPE ( 'NONE', 'NONE',  #5 ) ;
#36 = COORDINATED_UNIVERSAL_TIME_OFFSET ( 8, 0, .AHEAD. ) ;
#37 = VERTEX_POINT ( 'NONE', #150 ) ;
#38 = UNCERTAINTY_MEASURE_WITH_UNIT (LENGTH_MEASURE( 1.000000000000000100E-005 ), #169, 'distance_accuracy_value', 'NONE');
#39 = CARTESIAN_POINT ( 'NONE',  ( 6.123233995736766000E-017, 0.0000000000000000000, 1.000000000000000000 ) ) ;
#40 = DATE_AND_TIME ( #71, #111 ) ;
#41 = CC_DESIGN_APPROVAL ( #109, ( #65 ) ) ;
#42 = DESIGN_CONTEXT ( 'detailed design', #130, 'design' ) ;
#43 = CARTESIAN_POINT ( 'NONE',  ( 0.0000000000000000000, 0.0000000000000000000, 0.0000000000000000000 ) ) ;
#44 = APPROVAL_PERSON_ORGANIZATION ( #144, #151, #115 ) ;
#45 = APPROVAL_PERSON_ORGANIZATION ( #166, #31, #181 ) ;
#46 = DATE_AND_TIME ( #170, #97 ) ;
#47 =( GEOMETRIC_REPRESENTATION_CONTEXT ( 3 ) GLOBAL_UNCERTAINTY_ASSIGNED_CONTEXT ( ( #38 ) ) GLOBAL_UNIT_ASSIGNED_CONTEXT ( ( #169, #127, #62 ) ) REPRESENTATION_CONTEXT ( 'NONE', 'WORKASPACE' ) );
#48 = APPROVAL_ROLE ( '' ) ;
#49 = APPLICATION_PROTOCOL_DEFINITION ( 'international standard', 'config_control_design', 1994, #145 ) ;
#50 = APPROVAL_STATUS ( 'not_yet_approved' ) ;
#51 = DATE_AND_TIME ( #159, #89 ) ;
#52 = PRODUCT ( '160001', '160001', '', ( #12 ) ) ;
#53 = CC_DESIGN_SECURITY_CLASSIFICATION ( #3, ( #65 ) ) ;
#54 = PERSON_AND_ORGANIZATION_ROLE ( 'creator' ) ;
#55 = CC_DESIGN_SECURITY_CLASSIFICATION ( #165, ( #107 ) ) ;
#56 = CARTESIAN_POINT ( 'NONE',  ( 0.0000000000000000000, 0.0000000000000000000, 0.0000000000000000000 ) ) ;
#57 = CIRCLE ( 'NONE', #195, 1.000000000000000000 ) ;
#58 = DIRECTION ( 'NONE',  ( 1.000000000000000000, 0.0000000000000000000, 0.0000000000000000000 ) ) ;
#59 = SPHERICAL_SURFACE ( 'NONE', #6, 1.000000000000000000 ) ;
#60 = PERSON_AND_ORGANIZATION ( #141, #126 ) ;
#61 = PERSON_AND_ORGANIZATION ( #141, #126 ) ;
#62 =( NAMED_UNIT ( * ) SI_UNIT ( $, .STERADIAN. ) SOLID_ANGLE_UNIT ( ) );
#63 = DIRECTION ( 'NONE',  ( 1.000000000000000000, 0.0000000000000000000, 0.0000000000000000000 ) ) ;
#64 = APPROVAL_DATE_TIME ( #108, #26 ) ;
#65 = PRODUCT_DEFINITION_FORMATION_WITH_SPECIFIED_SOURCE ( 'ÈÎºÎ', '', #52, .NOT_KNOWN. ) ;
#66 = APPROVAL_PERSON_ORGANIZATION ( #83, #109, #157 ) ;
#67 = COORDINATED_UNIVERSAL_TIME_OFFSET ( 8, 0, .AHEAD. ) ;
#68 = ADVANCED_BREP_SHAPE_REPRESENTATION ( '160001', ( #75, #34 ), #47 ) ;
#69 = CC_DESIGN_APPROVAL ( #151, ( #18 ) ) ;
#70 = DIRECTION ( 'NONE',  ( 0.0000000000000000000, -1.000000000000000000, -0.0000000000000000000 ) ) ;
#71 = CALENDAR_DATE ( 2019, 5, 6 ) ;
#72 = PERSON_AND_ORGANIZATION ( #141, #126 ) ;
#73 = ADVANCED_FACE ( 'NONE', ( #198 ), #59, .T. ) ;
#74 = CC_DESIGN_PERSON_AND_ORGANIZATION_ASSIGNMENT ( #28, #142, ( #18 ) ) ;
#75 = MANIFOLD_SOLID_BREP ( 'Ðý×ª2', #17 ) ;
#76 = CC_DESIGN_PERSON_AND_ORGANIZATION_ASSIGNMENT ( #96, #156, ( #65 ) ) ;
#77 = PERSON_AND_ORGANIZATION_ROLE ( 'classification_officer' ) ;
#78 = DATE_AND_TIME ( #158, #86 ) ;
#79 = APPROVAL ( #50, 'Î´Ö¸¶¨' ) ;
#80 = SECURITY_CLASSIFICATION_LEVEL ( 'unclassified' ) ;
#81 = APPLICATION_CONTEXT ( 'configuration controlled 3d designs of mechanical parts and assemblies' ) ;
#82 = APPROVAL_STATUS ( 'not_yet_approved' ) ;
#83 = PERSON_AND_ORGANIZATION ( #141, #126 ) ;
#84 = CC_DESIGN_APPROVAL ( #26, ( #165 ) ) ;
#85 = CIRCLE ( 'NONE', #162, 1.000000000000000000 ) ;
#86 = LOCAL_TIME ( 13, 36, 34.00000000000000000, #121 ) ;
#87 = PRODUCT_RELATED_PRODUCT_CATEGORY ( 'detail', '', ( #52 ) ) ;
#88 = SHAPE_DEFINITION_REPRESENTATION ( #35, #68 ) ;
#89 = LOCAL_TIME ( 13, 36, 34.00000000000000000, #119 ) ;
#90 = AXIS2_PLACEMENT_3D ( 'NONE', #192, #128, #201 ) ;
#91 = PERSON_AND_ORGANIZATION ( #141, #126 ) ;
#92 = PERSON_AND_ORGANIZATION_ROLE ( 'creator' ) ;
#93 = CALENDAR_DATE ( 2019, 5, 6 ) ;
#94 = PERSON_AND_ORGANIZATION_ROLE ( 'design_owner' ) ;
#95 = CC_DESIGN_PERSON_AND_ORGANIZATION_ASSIGNMENT ( #124, #94, ( #98 ) ) ;
#96 = PERSON_AND_ORGANIZATION ( #141, #126 ) ;
#97 = LOCAL_TIME ( 13, 36, 34.00000000000000000, #140 ) ;
#98 = PRODUCT ( '160001', '160001', '', ( #203 ) ) ;
#99 = CC_DESIGN_PERSON_AND_ORGANIZATION_ASSIGNMENT ( #1, #92, ( #107 ) ) ;
#100 = APPROVAL_DATE_TIME ( #134, #151 ) ;
#101 = APPROVAL ( #147, 'Î´Ö¸¶¨' ) ;
#102 = APPROVAL_PERSON_ORGANIZATION ( #113, #26, #168 ) ;
#103 = DIRECTION ( 'NONE',  ( 0.0000000000000000000, -1.000000000000000000, -0.0000000000000000000 ) ) ;
#104 = CARTESIAN_POINT ( 'NONE',  ( 0.0000000000000000000, 0.0000000000000000000, 0.0000000000000000000 ) ) ;
#105 = DIRECTION ( 'NONE',  ( 1.000000000000000000, 0.0000000000000000000, 0.0000000000000000000 ) ) ;
#106 = DATE_AND_TIME ( #93, #186 ) ;
#107 = PRODUCT_DEFINITION_FORMATION_WITH_SPECIFIED_SOURCE ( 'ÈÎºÎ', '', #98, .NOT_KNOWN. ) ;
#108 = DATE_AND_TIME ( #152, #132 ) ;
#109 = APPROVAL ( #82, 'Î´Ö¸¶¨' ) ;
#110 = APPROVAL_STATUS ( 'not_yet_approved' ) ;
#111 = LOCAL_TIME ( 13, 36, 34.00000000000000000, #139 ) ;
#112 = SECURITY_CLASSIFICATION_LEVEL ( 'unclassified' ) ;
#113 = PERSON_AND_ORGANIZATION ( #141, #126 ) ;
#114 = EDGE_LOOP ( 'NONE', ( #120, #29 ) ) ;
#115 = APPROVAL_ROLE ( '' ) ;
#116 = PERSON_AND_ORGANIZATION_ROLE ( 'design_owner' ) ;
#117 = CC_DESIGN_APPROVAL ( #101, ( #5 ) ) ;
#118 = COORDINATED_UNIVERSAL_TIME_OFFSET ( 8, 0, .AHEAD. ) ;
#119 = COORDINATED_UNIVERSAL_TIME_OFFSET ( 8, 0, .AHEAD. ) ;
#120 = ORIENTED_EDGE ( 'NONE', *, *, #189, .F. ) ;
#121 = COORDINATED_UNIVERSAL_TIME_OFFSET ( 8, 0, .AHEAD. ) ;
#122 = CC_DESIGN_PERSON_AND_ORGANIZATION_ASSIGNMENT ( #72, #30, ( #107 ) ) ;
#123 = COORDINATED_UNIVERSAL_TIME_OFFSET ( 8, 0, .AHEAD. ) ;
#124 = PERSON_AND_ORGANIZATION ( #141, #126 ) ;
#125 = DIRECTION ( 'NONE',  ( 0.0000000000000000000, 1.000000000000000000, -0.0000000000000000000 ) ) ;
#126 = ORGANIZATION ( 'Î´Ö¸¶¨', 'Î´Ö¸¶¨', '' ) ;
#127 =( NAMED_UNIT ( * ) PLANE_ANGLE_UNIT ( ) SI_UNIT ( $, .RADIAN. ) );
#128 = DIRECTION ( 'NONE',  ( 0.0000000000000000000, 0.0000000000000000000, 1.000000000000000000 ) ) ;
#129 = PERSON_AND_ORGANIZATION_ROLE ( 'classification_officer' ) ;
#130 = APPLICATION_CONTEXT ( 'configuration controlled 3d designs of mechanical parts and assemblies' ) ;
#131 = APPLICATION_PROTOCOL_DEFINITION ( 'international standard', 'config_control_design', 1994, #130 ) ;
#132 = LOCAL_TIME ( 13, 36, 34.00000000000000000, #67 ) ;
#133 = DESIGN_CONTEXT ( 'detailed design', #183, 'design' ) ;
#134 = DATE_AND_TIME ( #20, #197 ) ;
#135 = CC_DESIGN_PERSON_AND_ORGANIZATION_ASSIGNMENT ( #91, #54, ( #5 ) ) ;
#136 = APPROVAL_DATE_TIME ( #9, #79 ) ;
#137 = DIRECTION ( 'NONE',  ( 1.000000000000000000, 1.224646799147353200E-016, 0.0000000000000000000 ) ) ;
#138 = PERSON_AND_ORGANIZATION ( #141, #126 ) ;
#139 = COORDINATED_UNIVERSAL_TIME_OFFSET ( 8, 0, .AHEAD. ) ;
#140 = COORDINATED_UNIVERSAL_TIME_OFFSET ( 8, 0, .AHEAD. ) ;
#141 = PERSON ( 'Î´Ö¸¶¨', 'Î´Ö¸¶¨', 'Î´Ö¸¶¨', ('Î´Ö¸¶¨'), ('Î´Ö¸¶¨'), ('Î´Ö¸¶¨') ) ;
#142 = PERSON_AND_ORGANIZATION_ROLE ( 'creator' ) ;
#143 = APPROVAL_STATUS ( 'not_yet_approved' ) ;
#144 = PERSON_AND_ORGANIZATION ( #141, #126 ) ;
#145 = APPLICATION_CONTEXT ( 'configuration controlled 3d designs of mechanical parts and assemblies' ) ;
#146 = DATE_TIME_ROLE ( 'classification_date' ) ;
#147 = APPROVAL_STATUS ( 'not_yet_approved' ) ;
#148 = CC_DESIGN_PERSON_AND_ORGANIZATION_ASSIGNMENT ( #193, #180, ( #65 ) ) ;
#149 = SPHERICAL_SURFACE ( 'NONE', #202, 1.000000000000000000 ) ;
#150 = CARTESIAN_POINT ( 'NONE',  ( 6.123233995736766000E-017, 0.0000000000000000000, -1.000000000000000000 ) ) ;
#151 = APPROVAL ( #143, 'Î´Ö¸¶¨' ) ;
#152 = CALENDAR_DATE ( 2019, 5, 6 ) ;
#153 = ORIENTED_EDGE ( 'NONE', *, *, #189, .T. ) ;
#154 = CC_DESIGN_DATE_AND_TIME_ASSIGNMENT ( #78, #146, ( #3 ) ) ;
#155 = PERSON_AND_ORGANIZATION ( #141, #126 ) ;
#156 = PERSON_AND_ORGANIZATION_ROLE ( 'design_supplier' ) ;
#157 = APPROVAL_ROLE ( '' ) ;
#158 = CALENDAR_DATE ( 2019, 5, 6 ) ;
#159 = CALENDAR_DATE ( 2019, 5, 6 ) ;
#160 = VERTEX_POINT ( 'NONE', #39 ) ;
#161 = EDGE_CURVE ( 'NONE', #160, #37, #57, .T. ) ;
#162 = AXIS2_PLACEMENT_3D ( 'NONE', #43, #125, #21 ) ;
#163 = APPROVAL_DATE_TIME ( #46, #101 ) ;
#164 = CARTESIAN_POINT ( 'NONE',  ( 0.0000000000000000000, 0.0000000000000000000, 0.0000000000000000000 ) ) ;
#165 = SECURITY_CLASSIFICATION ( '', '', #112 ) ;
#166 = PERSON_AND_ORGANIZATION ( #141, #126 ) ;
#167 = LOCAL_TIME ( 13, 36, 34.00000000000000000, #171 ) ;
#168 = APPROVAL_ROLE ( '' ) ;
#169 =( LENGTH_UNIT ( ) NAMED_UNIT ( * ) SI_UNIT ( .MILLI., .METRE. ) );
#170 = CALENDAR_DATE ( 2019, 5, 6 ) ;
#171 = COORDINATED_UNIVERSAL_TIME_OFFSET ( 8, 0, .AHEAD. ) ;
#172 = CC_DESIGN_APPROVAL ( #31, ( #3 ) ) ;
#173 = CC_DESIGN_PERSON_AND_ORGANIZATION_ASSIGNMENT ( #138, #129, ( #165 ) ) ;
#174 = APPROVAL_DATE_TIME ( #22, #31 ) ;
#175 = DIRECTION ( 'NONE',  ( 1.224646799147353200E-016, -1.000000000000000000, 0.0000000000000000000 ) ) ;
#176 = ADVANCED_FACE ( 'NONE', ( #16 ), #149, .T. ) ;
#177 = PERSON_AND_ORGANIZATION ( #141, #126 ) ;
#178 = CALENDAR_DATE ( 2019, 5, 6 ) ;
#179 = DATE_TIME_ROLE ( 'creation_date' ) ;
#180 = PERSON_AND_ORGANIZATION_ROLE ( 'creator' ) ;
#181 = APPROVAL_ROLE ( '' ) ;
#182 = APPROVAL_STATUS ( 'not_yet_approved' ) ;
#183 = APPLICATION_CONTEXT ( 'configuration controlled 3d designs of mechanical parts and assemblies' ) ;
#184 = COORDINATED_UNIVERSAL_TIME_OFFSET ( 8, 0, .AHEAD. ) ;
#185 = CALENDAR_DATE ( 2019, 5, 6 ) ;
#186 = LOCAL_TIME ( 13, 36, 34.00000000000000000, #184 ) ;
#187 = EDGE_LOOP ( 'NONE', ( #24, #153 ) ) ;
#188 = CC_DESIGN_DATE_AND_TIME_ASSIGNMENT ( #19, #32, ( #5 ) ) ;
#189 = EDGE_CURVE ( 'NONE', #160, #37, #85, .T. ) ;
#190 = CARTESIAN_POINT ( 'NONE',  ( 0.0000000000000000000, 0.0000000000000000000, 0.0000000000000000000 ) ) ;
#191 = CC_DESIGN_PERSON_AND_ORGANIZATION_ASSIGNMENT ( #155, #116, ( #52 ) ) ;
#192 = CARTESIAN_POINT ( 'NONE',  ( 0.0000000000000000000, 0.0000000000000000000, 0.0000000000000000000 ) ) ;
#193 = PERSON_AND_ORGANIZATION ( #141, #126 ) ;
#194 = APPROVAL_DATE_TIME ( #40, #109 ) ;
#195 = AXIS2_PLACEMENT_3D ( 'NONE', #190, #175, #137 ) ;
#196 = LOCAL_TIME ( 13, 36, 34.00000000000000000, #118 ) ;
#197 = LOCAL_TIME ( 13, 36, 34.00000000000000000, #36 ) ;
#198 = FACE_OUTER_BOUND ( 'NONE', #114, .T. ) ;
#199 = PRODUCT_RELATED_PRODUCT_CATEGORY ( 'detail', '', ( #98 ) ) ;
#200 = APPROVAL_ROLE ( '' ) ;
#201 = DIRECTION ( 'NONE',  ( 1.000000000000000000, 0.0000000000000000000, 0.0000000000000000000 ) ) ;
#202 = AXIS2_PLACEMENT_3D ( 'NONE', #164, #70, #105 ) ;
#203 = MECHANICAL_CONTEXT ( 'NONE', #81, 'mechanical' ) ;
ENDSEC;
END-ISO-10303-21;
