ISO-10303-21;
HEADER;
FILE_DESCRIPTION (( 'STEP AP203' ),
    '1' );
FILE_NAME ('160004.STEP',
    '2019-06-05T05:43:45',
    ( '' ),
    ( '' ),
    'SwSTEP 2.0',
    'SolidWorks 2016',
    '' );
FILE_SCHEMA (( 'CONFIG_CONTROL_DESIGN' ));
ENDSEC;

DATA;
#1 = COORDINATED_UNIVERSAL_TIME_OFFSET ( 8, 0, .AHEAD. ) ;
#2 = CC_DESIGN_DATE_AND_TIME_ASSIGNMENT ( #198, #143, ( #48 ) ) ;
#3 = DATE_TIME_ROLE ( 'classification_date' ) ;
#4 = PERSON_AND_ORGANIZATION ( #86, #40 ) ;
#5 = CC_DESIGN_APPROVAL ( #130, ( #70 ) ) ;
#6 = SPHERICAL_SURFACE ( 'NONE', #149, 2.500000000000000000 ) ;
#7 = CIRCLE ( 'NONE', #158, 2.500000000000000000 ) ;
#8 = AXIS2_PLACEMENT_3D ( 'NONE', #197, #164, #76 ) ;
#9 = APPROVAL_DATE_TIME ( #133, #93 ) ;
#10 = CALENDAR_DATE ( 2019, 5, 6 ) ;
#11 = LOCAL_TIME ( 13, 43, 45.00000000000000000, #90 ) ;
#12 = DATE_AND_TIME ( #10, #51 ) ;
#13 = COORDINATED_UNIVERSAL_TIME_OFFSET ( 8, 0, .AHEAD. ) ;
#14 = APPLICATION_PROTOCOL_DEFINITION ( 'international standard', 'config_control_design', 1994, #109 ) ;
#15 = ADVANCED_FACE ( 'NONE', ( #45 ), #6, .T. ) ;
#16 = DIRECTION ( 'NONE',  ( 0.0000000000000000000, 1.000000000000000000, -0.0000000000000000000 ) ) ;
#17 =( NAMED_UNIT ( * ) PLANE_ANGLE_UNIT ( ) SI_UNIT ( $, .RADIAN. ) );
#18 = CARTESIAN_POINT ( 'NONE',  ( 1.530808498934191600E-016, 0.0000000000000000000, 2.500000000000000000 ) ) ;
#19 = CC_DESIGN_SECURITY_CLASSIFICATION ( #70, ( #25 ) ) ;
#20 = DATE_TIME_ROLE ( 'creation_date' ) ;
#21 = CALENDAR_DATE ( 2019, 5, 6 ) ;
#22 =( GEOMETRIC_REPRESENTATION_CONTEXT ( 3 ) GLOBAL_UNCERTAINTY_ASSIGNED_CONTEXT ( ( #69 ) ) GLOBAL_UNIT_ASSIGNED_CONTEXT ( ( #41, #17, #61 ) ) REPRESENTATION_CONTEXT ( 'NONE', 'WORKASPACE' ) );
#23 = APPROVAL_PERSON_ORGANIZATION ( #138, #130, #98 ) ;
#24 = CC_DESIGN_APPROVAL ( #93, ( #181 ) ) ;
#25 = PRODUCT_DEFINITION_FORMATION_WITH_SPECIFIED_SOURCE ( 'ÈÎºÎ', '', #35, .NOT_KNOWN. ) ;
#26 = CALENDAR_DATE ( 2019, 5, 6 ) ;
#27 = CC_DESIGN_PERSON_AND_ORGANIZATION_ASSIGNMENT ( #174, #139, ( #35 ) ) ;
#28 = CARTESIAN_POINT ( 'NONE',  ( 0.0000000000000000000, 0.0000000000000000000, 0.0000000000000000000 ) ) ;
#29 = DIRECTION ( 'NONE',  ( 0.0000000000000000000, 0.0000000000000000000, 1.000000000000000000 ) ) ;
#30 = COORDINATED_UNIVERSAL_TIME_OFFSET ( 8, 0, .AHEAD. ) ;
#31 = CC_DESIGN_PERSON_AND_ORGANIZATION_ASSIGNMENT ( #50, #187, ( #181 ) ) ;
#32 = APPROVAL_STATUS ( 'not_yet_approved' ) ;
#33 = DATE_AND_TIME ( #165, #122 ) ;
#34 = CC_DESIGN_PERSON_AND_ORGANIZATION_ASSIGNMENT ( #178, #47, ( #54 ) ) ;
#35 = PRODUCT ( '160004', '160004', '', ( #152 ) ) ;
#36 = APPROVAL_PERSON_ORGANIZATION ( #180, #78, #189 ) ;
#37 = APPROVAL_DATE_TIME ( #33, #55 ) ;
#38 = CC_DESIGN_SECURITY_CLASSIFICATION ( #115, ( #181 ) ) ;
#39 = LOCAL_TIME ( 13, 43, 45.00000000000000000, #88 ) ;
#40 = ORGANIZATION ( 'Î´Ö¸¶¨', 'Î´Ö¸¶¨', '' ) ;
#41 =( LENGTH_UNIT ( ) NAMED_UNIT ( * ) SI_UNIT ( .MILLI., .METRE. ) );
#42 = AXIS2_PLACEMENT_3D ( 'NONE', #201, #44, #77 ) ;
#43 = PERSON_AND_ORGANIZATION ( #86, #40 ) ;
#44 = DIRECTION ( 'NONE',  ( 0.0000000000000000000, 0.0000000000000000000, 1.000000000000000000 ) ) ;
#45 = FACE_OUTER_BOUND ( 'NONE', #106, .T. ) ;
#46 = PRODUCT_DEFINITION ( 'Î´Öª', '', #181, #121 ) ;
#47 = PERSON_AND_ORGANIZATION_ROLE ( 'design_owner' ) ;
#48 = PRODUCT_DEFINITION ( 'Î´Öª', '', #25, #92 ) ;
#49 = PERSON_AND_ORGANIZATION_ROLE ( 'classification_officer' ) ;
#50 = PERSON_AND_ORGANIZATION ( #86, #40 ) ;
#51 = LOCAL_TIME ( 13, 43, 45.00000000000000000, #163 ) ;
#52 = APPROVAL_ROLE ( '' ) ;
#53 = EDGE_LOOP ( 'NONE', ( #108, #168 ) ) ;
#54 = PRODUCT ( '160004', '160004', '', ( #67 ) ) ;
#55 = APPROVAL ( #173, 'Î´Ö¸¶¨' ) ;
#56 = APPROVAL_PERSON_ORGANIZATION ( #99, #93, #52 ) ;
#57 = CC_DESIGN_DATE_AND_TIME_ASSIGNMENT ( #68, #20, ( #46 ) ) ;
#58 = AXIS2_PLACEMENT_3D ( 'NONE', #28, #29, #71 ) ;
#59 = ORIENTED_EDGE ( 'NONE', *, *, #134, .F. ) ;
#60 = PRODUCT_RELATED_PRODUCT_CATEGORY ( 'detail', '', ( #35 ) ) ;
#61 =( NAMED_UNIT ( * ) SI_UNIT ( $, .STERADIAN. ) SOLID_ANGLE_UNIT ( ) );
#62 = CARTESIAN_POINT ( 'NONE',  ( 0.0000000000000000000, 0.0000000000000000000, 0.0000000000000000000 ) ) ;
#63 = APPLICATION_CONTEXT ( 'configuration controlled 3d designs of mechanical parts and assemblies' ) ;
#64 = APPROVAL_DATE_TIME ( #124, #130 ) ;
#65 = SECURITY_CLASSIFICATION_LEVEL ( 'unclassified' ) ;
#66 = CC_DESIGN_PERSON_AND_ORGANIZATION_ASSIGNMENT ( #156, #171, ( #25 ) ) ;
#67 = MECHANICAL_CONTEXT ( 'NONE', #63, 'mechanical' ) ;
#68 = DATE_AND_TIME ( #113, #190 ) ;
#69 = UNCERTAINTY_MEASURE_WITH_UNIT (LENGTH_MEASURE( 1.000000000000000100E-005 ), #41, 'distance_accuracy_value', 'NONE');
#70 = SECURITY_CLASSIFICATION ( '', '', #65 ) ;
#71 = DIRECTION ( 'NONE',  ( 1.000000000000000000, 0.0000000000000000000, 0.0000000000000000000 ) ) ;
#72 = ADVANCED_BREP_SHAPE_REPRESENTATION ( '160004', ( #179, #42 ), #22 ) ;
#73 = DIRECTION ( 'NONE',  ( 1.000000000000000000, 0.0000000000000000000, 0.0000000000000000000 ) ) ;
#74 = APPROVAL_PERSON_ORGANIZATION ( #4, #55, #202 ) ;
#75 = LOCAL_TIME ( 13, 43, 45.00000000000000000, #30 ) ;
#76 = DIRECTION ( 'NONE',  ( 1.000000000000000000, 0.0000000000000000000, 0.0000000000000000000 ) ) ;
#77 = DIRECTION ( 'NONE',  ( 1.000000000000000000, 0.0000000000000000000, 0.0000000000000000000 ) ) ;
#78 = APPROVAL ( #83, 'Î´Ö¸¶¨' ) ;
#79 = APPLICATION_PROTOCOL_DEFINITION ( 'international standard', 'config_control_design', 1994, #63 ) ;
#80 = CC_DESIGN_PERSON_AND_ORGANIZATION_ASSIGNMENT ( #151, #103, ( #48 ) ) ;
#81 = SECURITY_CLASSIFICATION_LEVEL ( 'unclassified' ) ;
#82 = COORDINATED_UNIVERSAL_TIME_OFFSET ( 8, 0, .AHEAD. ) ;
#83 = APPROVAL_STATUS ( 'not_yet_approved' ) ;
#84 = CALENDAR_DATE ( 2019, 5, 6 ) ;
#85 = APPROVAL_DATE_TIME ( #200, #123 ) ;
#86 = PERSON ( 'Î´Ö¸¶¨', 'Î´Ö¸¶¨', 'Î´Ö¸¶¨', ('Î´Ö¸¶¨'), ('Î´Ö¸¶¨'), ('Î´Ö¸¶¨') ) ;
#87 = CC_DESIGN_PERSON_AND_ORGANIZATION_ASSIGNMENT ( #43, #49, ( #70 ) ) ;
#88 = COORDINATED_UNIVERSAL_TIME_OFFSET ( 8, 0, .AHEAD. ) ;
#89 = CALENDAR_DATE ( 2019, 5, 6 ) ;
#90 = COORDINATED_UNIVERSAL_TIME_OFFSET ( 8, 0, .AHEAD. ) ;
#91 = CLOSED_SHELL ( 'NONE', ( #110, #15 ) ) ;
#92 = DESIGN_CONTEXT ( 'detailed design', #167, 'design' ) ;
#93 = APPROVAL ( #32, 'Î´Ö¸¶¨' ) ;
#94 = PERSON_AND_ORGANIZATION ( #86, #40 ) ;
#95 = PERSON_AND_ORGANIZATION ( #86, #40 ) ;
#96 = APPROVAL_STATUS ( 'not_yet_approved' ) ;
#97 = APPROVAL_STATUS ( 'not_yet_approved' ) ;
#98 = APPROVAL_ROLE ( '' ) ;
#99 = PERSON_AND_ORGANIZATION ( #86, #40 ) ;
#100 = CC_DESIGN_DATE_AND_TIME_ASSIGNMENT ( #107, #3, ( #70 ) ) ;
#101 = APPROVAL_PERSON_ORGANIZATION ( #95, #182, #199 ) ;
#102 = APPROVAL_STATUS ( 'not_yet_approved' ) ;
#103 = PERSON_AND_ORGANIZATION_ROLE ( 'creator' ) ;
#104 = CC_DESIGN_APPROVAL ( #78, ( #46 ) ) ;
#105 = LOCAL_TIME ( 13, 43, 45.00000000000000000, #1 ) ;
#106 = EDGE_LOOP ( 'NONE', ( #59, #145 ) ) ;
#107 = DATE_AND_TIME ( #26, #11 ) ;
#108 = ORIENTED_EDGE ( 'NONE', *, *, #117, .F. ) ;
#109 = APPLICATION_CONTEXT ( 'configuration controlled 3d designs of mechanical parts and assemblies' ) ;
#110 = ADVANCED_FACE ( 'NONE', ( #128 ), #161, .T. ) ;
#111 = PRODUCT_DEFINITION_SHAPE ( 'NONE', 'NONE',  #46 ) ;
#112 = PERSON_AND_ORGANIZATION ( #86, #40 ) ;
#113 = CALENDAR_DATE ( 2019, 5, 6 ) ;
#114 = APPLICATION_PROTOCOL_DEFINITION ( 'international standard', 'config_control_design', 1994, #154 ) ;
#115 = SECURITY_CLASSIFICATION ( '', '', #81 ) ;
#116 = PERSON_AND_ORGANIZATION_ROLE ( 'classification_officer' ) ;
#117 = EDGE_CURVE ( 'NONE', #135, #176, #169, .T. ) ;
#118 = SHAPE_DEFINITION_REPRESENTATION ( #111, #72 ) ;
#119 = PRODUCT_DEFINITION_SHAPE ( 'NONE', 'NONE',  #48 ) ;
#120 = CC_DESIGN_PERSON_AND_ORGANIZATION_ASSIGNMENT ( #193, #153, ( #25 ) ) ;
#121 = DESIGN_CONTEXT ( 'detailed design', #154, 'design' ) ;
#122 = LOCAL_TIME ( 13, 43, 45.00000000000000000, #127 ) ;
#123 = APPROVAL ( #102, 'Î´Ö¸¶¨' ) ;
#124 = DATE_AND_TIME ( #157, #105 ) ;
#125 = DATE_AND_TIME ( #89, #39 ) ;
#126 = DIRECTION ( 'NONE',  ( 0.0000000000000000000, -1.000000000000000000, -0.0000000000000000000 ) ) ;
#127 = COORDINATED_UNIVERSAL_TIME_OFFSET ( 8, 0, .AHEAD. ) ;
#128 = FACE_OUTER_BOUND ( 'NONE', #53, .T. ) ;
#129 = APPROVAL_ROLE ( '' ) ;
#130 = APPROVAL ( #97, 'Î´Ö¸¶¨' ) ;
#131 = PERSON_AND_ORGANIZATION ( #86, #40 ) ;
#132 = LOCAL_TIME ( 13, 43, 45.00000000000000000, #159 ) ;
#133 = DATE_AND_TIME ( #172, #162 ) ;
#134 = EDGE_CURVE ( 'NONE', #135, #176, #7, .T. ) ;
#135 = VERTEX_POINT ( 'NONE', #18 ) ;
#136 = APPROVAL_PERSON_ORGANIZATION ( #112, #123, #129 ) ;
#137 = APPROVAL_DATE_TIME ( #12, #182 ) ;
#138 = PERSON_AND_ORGANIZATION ( #86, #40 ) ;
#139 = PERSON_AND_ORGANIZATION_ROLE ( 'design_owner' ) ;
#140 = CARTESIAN_POINT ( 'NONE',  ( 0.0000000000000000000, 0.0000000000000000000, 0.0000000000000000000 ) ) ;
#141 = DIRECTION ( 'NONE',  ( 1.000000000000000000, 1.224646799147353200E-016, 0.0000000000000000000 ) ) ;
#142 = COORDINATED_UNIVERSAL_TIME_OFFSET ( 8, 0, .AHEAD. ) ;
#143 = DATE_TIME_ROLE ( 'creation_date' ) ;
#144 = AXIS2_PLACEMENT_3D ( 'NONE', #170, #16, #185 ) ;
#145 = ORIENTED_EDGE ( 'NONE', *, *, #117, .T. ) ;
#146 = PERSON_AND_ORGANIZATION ( #86, #40 ) ;
#147 = APPROVAL_DATE_TIME ( #186, #78 ) ;
#148 = CC_DESIGN_DATE_AND_TIME_ASSIGNMENT ( #125, #188, ( #115 ) ) ;
#149 = AXIS2_PLACEMENT_3D ( 'NONE', #62, #126, #73 ) ;
#150 = DIRECTION ( 'NONE',  ( 1.224646799147353200E-016, -1.000000000000000000, 0.0000000000000000000 ) ) ;
#151 = PERSON_AND_ORGANIZATION ( #86, #40 ) ;
#152 = MECHANICAL_CONTEXT ( 'NONE', #109, 'mechanical' ) ;
#153 = PERSON_AND_ORGANIZATION_ROLE ( 'design_supplier' ) ;
#154 = APPLICATION_CONTEXT ( 'configuration controlled 3d designs of mechanical parts and assemblies' ) ;
#155 = CC_DESIGN_APPROVAL ( #55, ( #25 ) ) ;
#156 = PERSON_AND_ORGANIZATION ( #86, #40 ) ;
#157 = CALENDAR_DATE ( 2019, 5, 6 ) ;
#158 = AXIS2_PLACEMENT_3D ( 'NONE', #140, #150, #141 ) ;
#159 = COORDINATED_UNIVERSAL_TIME_OFFSET ( 8, 0, .AHEAD. ) ;
#160 = PRODUCT_RELATED_PRODUCT_CATEGORY ( 'detail', '', ( #54 ) ) ;
#161 = SPHERICAL_SURFACE ( 'NONE', #8, 2.500000000000000000 ) ;
#162 = LOCAL_TIME ( 13, 43, 45.00000000000000000, #13 ) ;
#163 = COORDINATED_UNIVERSAL_TIME_OFFSET ( 8, 0, .AHEAD. ) ;
#164 = DIRECTION ( 'NONE',  ( 0.0000000000000000000, -1.000000000000000000, -0.0000000000000000000 ) ) ;
#165 = CALENDAR_DATE ( 2019, 5, 6 ) ;
#166 = CALENDAR_DATE ( 2019, 5, 6 ) ;
#167 = APPLICATION_CONTEXT ( 'configuration controlled 3d designs of mechanical parts and assemblies' ) ;
#168 = ORIENTED_EDGE ( 'NONE', *, *, #134, .T. ) ;
#169 = CIRCLE ( 'NONE', #144, 2.500000000000000000 ) ;
#170 = CARTESIAN_POINT ( 'NONE',  ( 0.0000000000000000000, 0.0000000000000000000, 0.0000000000000000000 ) ) ;
#171 = PERSON_AND_ORGANIZATION_ROLE ( 'creator' ) ;
#172 = CALENDAR_DATE ( 2019, 5, 6 ) ;
#173 = APPROVAL_STATUS ( 'not_yet_approved' ) ;
#174 = PERSON_AND_ORGANIZATION ( #86, #40 ) ;
#175 = PERSON_AND_ORGANIZATION_ROLE ( 'creator' ) ;
#176 = VERTEX_POINT ( 'NONE', #196 ) ;
#177 = CC_DESIGN_APPROVAL ( #123, ( #115 ) ) ;
#178 = PERSON_AND_ORGANIZATION ( #86, #40 ) ;
#179 = MANIFOLD_SOLID_BREP ( 'Ðý×ª2', #91 ) ;
#180 = PERSON_AND_ORGANIZATION ( #86, #40 ) ;
#181 = PRODUCT_DEFINITION_FORMATION_WITH_SPECIFIED_SOURCE ( 'ÈÎºÎ', '', #54, .NOT_KNOWN. ) ;
#182 = APPROVAL ( #96, 'Î´Ö¸¶¨' ) ;
#183 = APPLICATION_PROTOCOL_DEFINITION ( 'international standard', 'config_control_design', 1994, #167 ) ;
#184 = CC_DESIGN_PERSON_AND_ORGANIZATION_ASSIGNMENT ( #146, #203, ( #46 ) ) ;
#185 = DIRECTION ( 'NONE',  ( 0.0000000000000000000, 0.0000000000000000000, 1.000000000000000000 ) ) ;
#186 = DATE_AND_TIME ( #21, #195 ) ;
#187 = PERSON_AND_ORGANIZATION_ROLE ( 'design_supplier' ) ;
#188 = DATE_TIME_ROLE ( 'classification_date' ) ;
#189 = APPROVAL_ROLE ( '' ) ;
#190 = LOCAL_TIME ( 13, 43, 45.00000000000000000, #142 ) ;
#191 = CC_DESIGN_PERSON_AND_ORGANIZATION_ASSIGNMENT ( #94, #175, ( #181 ) ) ;
#192 = CC_DESIGN_APPROVAL ( #182, ( #48 ) ) ;
#193 = PERSON_AND_ORGANIZATION ( #86, #40 ) ;
#194 = CC_DESIGN_PERSON_AND_ORGANIZATION_ASSIGNMENT ( #131, #116, ( #115 ) ) ;
#195 = LOCAL_TIME ( 13, 43, 45.00000000000000000, #82 ) ;
#196 = CARTESIAN_POINT ( 'NONE',  ( 1.530808498934191600E-016, 0.0000000000000000000, -2.500000000000000000 ) ) ;
#197 = CARTESIAN_POINT ( 'NONE',  ( 0.0000000000000000000, 0.0000000000000000000, 0.0000000000000000000 ) ) ;
#198 = DATE_AND_TIME ( #84, #132 ) ;
#199 = APPROVAL_ROLE ( '' ) ;
#200 = DATE_AND_TIME ( #166, #75 ) ;
#201 = CARTESIAN_POINT ( 'NONE',  ( 0.0000000000000000000, 0.0000000000000000000, 0.0000000000000000000 ) ) ;
#202 = APPROVAL_ROLE ( '' ) ;
#203 = PERSON_AND_ORGANIZATION_ROLE ( 'creator' ) ;
ENDSEC;
END-ISO-10303-21;
