ISO-10303-21;
HEADER;
FILE_DESCRIPTION (( 'STEP AP214' ),
    '1' );
FILE_NAME ('155277.STEP',
    '2019-06-25T07:31:09',
    ( 'user' ),
    ( 'Î¢ÈíÖÐ¹ú' ),
    'SwSTEP 2.0',
    'SolidWorks 2016',
    '' );
FILE_SCHEMA (( 'AUTOMOTIVE_DESIGN' ));
ENDSEC;

DATA;
#1 = CARTESIAN_POINT ( 'NONE',  ( -29.70210699303268600, 2.119642954280810200, 4.708280247210489700 ) ) ;
#2 = PRODUCT ( '155277', '155277', '', ( #211 ) ) ;
#3 = CARTESIAN_POINT ( 'NONE',  ( -29.99569338678548300, 0.1619907079455218400, 1.428665464632234300 ) ) ;
#4 =( NAMED_UNIT ( * ) SI_UNIT ( $, .STERADIAN. ) SOLID_ANGLE_UNIT ( ) );
#5 = EDGE_CURVE ( 'NONE', #197, #140, #195, .T. ) ;
#6 = CARTESIAN_POINT ( 'NONE',  ( -29.45192361178159900, 6.250000000000000900, 6.250000000000003600 ) ) ;
#7 = FILL_AREA_STYLE ('',( #209 ) ) ;
#8 = CLOSED_SHELL ( 'NONE', ( #113, #116, #92, #15 ) ) ;
#9 = CARTESIAN_POINT ( 'NONE',  ( -29.45192361178160600, 6.663585534111053500, 6.250000000000004400 ) ) ;
#10 = CARTESIAN_POINT ( 'NONE',  ( -29.95449491640909300, 0.3985439743864460100, -2.205640321296670900 ) ) ;
#11 =( GEOMETRIC_REPRESENTATION_CONTEXT ( 3 ) GLOBAL_UNCERTAINTY_ASSIGNED_CONTEXT ( ( #25 ) ) GLOBAL_UNIT_ASSIGNED_CONTEXT ( ( #99, #114, #152 ) ) REPRESENTATION_CONTEXT ( 'NONE', 'WORKASPACE' ) );
#12 = CARTESIAN_POINT ( 'NONE',  ( -29.45951365678063300, 7.072357636109180700, 6.209347652084772100 ) ) ;
#13 = SHAPE_DEFINITION_REPRESENTATION ( #180, #156 ) ;
#14 = CARTESIAN_POINT ( 'NONE',  ( -40.15479566514873300, 6.250000000000000900, 6.250000000000006200 ) ) ;
#15 = ADVANCED_FACE ( 'NONE', ( #39 ), #176, .T. ) ;
#16 = CARTESIAN_POINT ( 'NONE',  ( -30.01732974026254700, 0.04069004026610487100, 0.8226411270095058700 ) ) ;
#17 = CARTESIAN_POINT ( 'NONE',  ( -29.98672619453945700, 0.2126369841440143300, 1.629292868932643800 ) ) ;
#18 = SURFACE_STYLE_USAGE ( .BOTH. , #78 ) ;
#19 = FACE_OUTER_BOUND ( 'NONE', #23, .T. ) ;
#20 = CARTESIAN_POINT ( 'NONE',  ( -29.45950936658128300, 5.429911900967489700, 6.209353654587912000 ) ) ;
#21 = CARTESIAN_POINT ( 'NONE',  ( -29.49058467507389700, 7.879018686074259900, 6.037436885924125600 ) ) ;
#22 = CARTESIAN_POINT ( 'NONE',  ( -29.48148351817305400, 7.678390587346003200, 6.088073826466858100 ) ) ;
#23 = EDGE_LOOP ( 'NONE', ( #60, #220 ) ) ;
#24 = CARTESIAN_POINT ( 'NONE',  ( -29.51167370987012000, 8.270320932733090700, 5.917993693800020200 ) ) ;
#25 = UNCERTAINTY_MEASURE_WITH_UNIT (LENGTH_MEASURE( 1.000000000000000100E-005 ), #99, 'distance_accuracy_value', 'NONE');
#26 = CARTESIAN_POINT ( 'NONE',  ( -29.77698853038832300, 10.95806593220018500, 4.130602535038304000 ) ) ;
#27 = MECHANICAL_DESIGN_GEOMETRIC_PRESENTATION_REPRESENTATION (  '', ( #218 ), #210 ) ;
#28 = CARTESIAN_POINT ( 'NONE',  ( -29.81365234176699300, 1.286142474016415100, 3.819839057943738700 ) ) ;
#29 = PRODUCT_DEFINITION_FORMATION_WITH_SPECIFIED_SOURCE ( 'ÈÎºÎ', '', #2, .NOT_KNOWN. ) ;
#30 = CARTESIAN_POINT ( 'NONE',  ( -29.45192361178160600, 5.836397754119137600, -6.249999999999999100 ) ) ;
#31 = SURFACE_STYLE_FILL_AREA ( #7 ) ;
#32 = CARTESIAN_POINT ( 'NONE',  ( -29.48113250008722400, 7.669749612529282800, -6.090020010993823600 ) ) ;
#33 = CARTESIAN_POINT ( 'NONE',  ( -29.66424970156141300, 10.05988659487509600, -4.971283168202985400 ) ) ;
#34 = PRESENTATION_LAYER_ASSIGNMENT (  '', '', ( #98 ) ) ;
#35 = CYLINDRICAL_SURFACE ( 'NONE', #72, 6.250000000000000000 ) ;
#36 = CARTESIAN_POINT ( 'NONE',  ( -29.66531642205876600, 10.06956148135761400, 4.964070242712608700 ) ) ;
#37 = CARTESIAN_POINT ( 'NONE',  ( -29.61295119900456300, 9.557940402553734700, 5.306803756901759400 ) ) ;
#38 = CARTESIAN_POINT ( 'NONE',  ( -29.59613851821274700, 9.381118089457531900, 5.412970530257006800 ) ) ;
#39 = FACE_OUTER_BOUND ( 'NONE', #105, .T. ) ;
#40 = CARTESIAN_POINT ( 'NONE',  ( -29.45192361178159500, 6.250000000000000000, -6.249999999999996400 ) ) ;
#41 = CARTESIAN_POINT ( 'NONE',  ( -30.02479933005815500, -2.015993336552259100E-005, -0.4132680652873939600 ) ) ;
#42 = CARTESIAN_POINT ( 'NONE',  ( -29.52328554307732800, 8.455839807903853300, -5.851380275469126400 ) ) ;
#43 = CARTESIAN_POINT ( 'NONE',  ( -29.56484863795416700, 9.021319657086504400, 5.605705826192179100 ) ) ;
#44 = CARTESIAN_POINT ( 'NONE',  ( -29.53571226097814800, 8.653639679252611600, 5.780038329529474200 ) ) ;
#45 = EDGE_LOOP ( 'NONE', ( #123, #170 ) ) ;
#46 = CARTESIAN_POINT ( 'NONE',  ( -29.66533107533157600, 2.430307390014130300, -4.963970593444929400 ) ) ;
#47 = CARTESIAN_POINT ( 'NONE',  ( -29.81473295068622100, 11.22120132487806600, 3.809993899568081300 ) ) ;
#48 = CARTESIAN_POINT ( 'NONE',  ( -29.61296291583326500, 2.941939105715802900, -5.306728939897844600 ) ) ;
#49 = CARTESIAN_POINT ( 'NONE',  ( -29.98726448423427400, 12.29042285494407400, 1.618002006496949100 ) ) ;
#50 = VECTOR ( 'NONE', #169, 1000.000000000000000 ) ;
#51 = CARTESIAN_POINT ( 'NONE',  ( -29.77700814061467600, 1.541791730425730900, -4.130441973030206000 ) ) ;
#52 = CARTESIAN_POINT ( 'NONE',  ( -29.96650128496178000, 12.17123469639351500, 2.010875040817920100 ) ) ;
#53 = CARTESIAN_POINT ( 'NONE',  ( -29.95447637059373500, 12.10134735310038100, 2.205927729438845300 ) ) ;
#54 = CARTESIAN_POINT ( 'NONE',  ( -29.91487550569205600, 11.86608183927452100, 2.773023034729247700 ) ) ;
#55 = PRODUCT_DEFINITION ( 'Î´Öª', '', #29, #159 ) ;
#56 = CIRCLE ( 'NONE', #157, 6.250000000000000000 ) ;
#57 = APPLICATION_CONTEXT ( 'automotive_design' ) ;
#58 = CARTESIAN_POINT ( 'NONE',  ( -29.96592587265874400, 0.3321001680846884000, 2.020596203450154800 ) ) ;
#59 = DIRECTION ( 'NONE',  ( -2.775557561562892300E-016, 0.0000000000000000000, -1.000000000000000000 ) ) ;
#60 = ORIENTED_EDGE ( 'NONE', *, *, #179, .F. ) ;
#61 = AXIS2_PLACEMENT_3D ( 'NONE', #165, #135, #162 ) ;
#62 = CARTESIAN_POINT ( 'NONE',  ( -29.49004785100728700, 7.867921935463877900, -6.040444217402182400 ) ) ;
#63 = ORIENTED_EDGE ( 'NONE', *, *, #188, .T. ) ;
#64 = CARTESIAN_POINT ( 'NONE',  ( -29.59614906785510900, 3.118767200117764200, -5.412904498935192000 ) ) ;
#65 = CARTESIAN_POINT ( 'NONE',  ( -29.45192361178160600, 6.663602245705349400, -6.249999999999998200 ) ) ;
#66 = CARTESIAN_POINT ( 'NONE',  ( -29.88357876222889700, 11.67425077626449500, 3.131517147232235000 ) ) ;
#67 = PRESENTATION_STYLE_ASSIGNMENT (( #18 ) ) ;
#68 = PRESENTATION_LAYER_ASSIGNMENT (  '', '', ( #218 ) ) ;
#69 = CARTESIAN_POINT ( 'NONE',  ( -29.99604727054902800, 12.34000155130904200, 1.419828833318120200 ) ) ;
#70 =( NAMED_UNIT ( * ) PLANE_ANGLE_UNIT ( ) SI_UNIT ( $, .RADIAN. ) );
#71 = APPLICATION_PROTOCOL_DEFINITION ( 'draft international standard', 'automotive_design', 1998, #91 ) ;
#72 = AXIS2_PLACEMENT_3D ( 'NONE', #102, #161, #90 ) ;
#73 = DIRECTION ( 'NONE',  ( 1.000000000000000000, 0.0000000000000000000, 0.0000000000000000000 ) ) ;
#74 = CARTESIAN_POINT ( 'NONE',  ( -30.01733862106440800, 12.45935887182427500, -0.8222792698917954500 ) ) ;
#75 = CARTESIAN_POINT ( 'NONE',  ( -30.02479682337600800, 12.50000637117619800, -0.4134945364059994800 ) ) ;
#76 = CARTESIAN_POINT ( 'NONE',  ( -30.02479450665192200, 12.49999362734033800, 0.4136871155666303500 ) ) ;
#77 = UNCERTAINTY_MEASURE_WITH_UNIT (LENGTH_MEASURE( 1.000000000000000100E-005 ), #158, 'distance_accuracy_value', 'NONE');
#78 = SURFACE_SIDE_STYLE ('',( #31 ) ) ;
#79 = EDGE_CURVE ( 'NONE', #140, #197, #56, .T. ) ;
#80 = CARTESIAN_POINT ( 'NONE',  ( -30.01733810212079600, 12.45933987885826800, 0.8202008975198680200 ) ) ;
#81 = EDGE_CURVE ( 'NONE', #106, #140, #115, .T. ) ;
#82 = APPLICATION_PROTOCOL_DEFINITION ( 'draft international standard', 'automotive_design', 1998, #57 ) ;
#83 = CARTESIAN_POINT ( 'NONE',  ( -29.99570730297561700, 12.33808774866917400, -1.428332161544859600 ) ) ;
#84 = CARTESIAN_POINT ( 'NONE',  ( -29.88359975350053000, 0.8256169346783676100, -3.131289966130026400 ) ) ;
#85 = MECHANICAL_DESIGN_GEOMETRIC_PRESENTATION_REPRESENTATION (  '', ( #98 ), #110 ) ;
#86 = CARTESIAN_POINT ( 'NONE',  ( -29.98674146383017800, 12.28744979989559200, -1.628972441040065700 ) ) ;
#87 = CARTESIAN_POINT ( 'NONE',  ( -29.49058772601560800, 4.620917098471580600, -6.037419829857147300 ) ) ;
#88 = DIRECTION ( 'NONE',  ( 0.0000000000000000000, 0.0000000000000000000, -1.000000000000000000 ) ) ;
#89 = SURFACE_STYLE_FILL_AREA ( #184 ) ;
#90 = DIRECTION ( 'NONE',  ( 0.0000000000000000000, 0.0000000000000000000, -1.000000000000000000 ) ) ;
#91 = APPLICATION_CONTEXT ( 'automotive_design' ) ;
#92 = ADVANCED_FACE ( 'NONE', ( #214 ), #215, .T. ) ;
#93 = CARTESIAN_POINT ( 'NONE',  ( -29.70212363037398300, 10.38049436214346400, -4.708161145499211400 ) ) ;
#94 = CARTESIAN_POINT ( 'NONE',  ( -29.86568756537108300, 0.9433724283265011400, 3.308223361151550800 ) ) ;
#95 = CARTESIAN_POINT ( 'NONE',  ( -29.66423496645743200, 2.440245762418176600, 4.971383183423040600 ) ) ;
#96 = CARTESIAN_POINT ( 'NONE',  ( -29.56334832448895300, 3.477182504013675700, 5.616181243988307900 ) ) ;
#97 = SURFACE_SIDE_STYLE ('',( #89 ) ) ;
#98 = STYLED_ITEM ( 'NONE', ( #151 ), #156 ) ;
#99 =( LENGTH_UNIT ( ) NAMED_UNIT ( * ) SI_UNIT ( .MILLI., .METRE. ) );
#100 = COLOUR_RGB ( '',1.000000000000000000, 1.000000000000000000, 1.000000000000000000 ) ;
#101 = CARTESIAN_POINT ( 'NONE',  ( -29.45950997949725500, 7.070120954779143900, -6.209350401278814300 ) ) ;
#102 = CARTESIAN_POINT ( 'NONE',  ( -40.15479566514873300, 6.250000000000000000, 5.941024246211215100E-015 ) ) ;
#103 = AXIS2_PLACEMENT_3D ( 'NONE', #198, #219, #59 ) ;
#104 = CARTESIAN_POINT ( 'NONE',  ( -30.01734690356624600, 0.04061163607061021900, -0.8198416718202417000 ) ) ;
#105 = EDGE_LOOP ( 'NONE', ( #128, #63, #147, #174 ) ) ;
#106 = VERTEX_POINT ( 'NONE', #202 ) ;
#107 = B_SPLINE_CURVE_WITH_KNOTS ( 'NONE', 3,
 ( #146, #150, #20, #186, #118, #119, #117, #96, #109, #95, #1, #138, #28, #94, #208, #142, #194, #58, #17, #3, #16, #108, #41, #104, #196, #148, #200, #10, #171, #84, #166, #51, #137, #46, #48, #64, #133, #141, #217, #87, #187, #149, #30, #40 ),
 .UNSPECIFIED., .F., .F.,
 ( 4, 2, 2, 2, 2, 2, 2, 2, 1, 2, 2, 2, 2, 2, 2, 2, 2, 2, 2, 1, 2, 2, 4 ),
 ( 0.009783867552278490200, 0.01100683913332945600, 0.01161832492385493800, 0.01222981071438042000, 0.01345278229543138400, 0.01467575387648234800, 0.01589872545753331200, 0.01651021124805880000, 0.01712169703858428000, 0.01773318282910976400, 0.01834466861963524700, 0.01956764020068621500, 0.02079061178173718200, 0.02140209757226266600, 0.02201358336278815000, 0.02323655494383912400, 0.02445952652489009200, 0.02568249810594106000, 0.02629398389646654700, 0.02690546968699203400, 0.02751695547751751400, 0.02812844126804300200, 0.02935141284909396900 ),
 .UNSPECIFIED. ) ;
#108 = CARTESIAN_POINT ( 'NONE',  ( -30.02479199753769000, 2.017479526314313700E-005, 0.4138776122160388600 ) ) ;
#109 = CARTESIAN_POINT ( 'NONE',  ( -29.59495067965698600, 3.118705940911183000, 5.424377901908120400 ) ) ;
#110 =( GEOMETRIC_REPRESENTATION_CONTEXT ( 3 ) GLOBAL_UNCERTAINTY_ASSIGNED_CONTEXT ( ( #139 ) ) GLOBAL_UNIT_ASSIGNED_CONTEXT ( ( #168, #182, #177 ) ) REPRESENTATION_CONTEXT ( 'NONE', 'WORKASPACE' ) );
#111 = SURFACE_STYLE_USAGE ( .BOTH. , #97 ) ;
#112 = FILL_AREA_STYLE_COLOUR ( '', #155 ) ;
#113 = ADVANCED_FACE ( 'NONE', ( #204 ), #35, .T. ) ;
#114 =( NAMED_UNIT ( * ) PLANE_ANGLE_UNIT ( ) SI_UNIT ( $, .RADIAN. ) );
#115 = LINE ( 'NONE', #203, #181 ) ;
#116 = ADVANCED_FACE ( 'NONE', ( #19 ), #193, .T. ) ;
#117 = CARTESIAN_POINT ( 'NONE',  ( -29.52328000242419000, 4.044245802130710400, 5.851412271958414700 ) ) ;
#118 = CARTESIAN_POINT ( 'NONE',  ( -29.49004483896023000, 4.632141981747350800, 6.040461045014975400 ) ) ;
#119 = CARTESIAN_POINT ( 'NONE',  ( -29.51109740140618200, 4.239287136095504700, 5.921289385133680300 ) ) ;
#120 = AXIS2_PLACEMENT_3D ( 'NONE', #185, #160, #212 ) ;
#121 = CARTESIAN_POINT ( 'NONE',  ( -29.94221700611663600, 12.03003756800894500, -2.403645133562928700 ) ) ;
#122 = CARTESIAN_POINT ( 'NONE',  ( -29.91339099415187900, 11.85569119638422100, -2.771350272400709500 ) ) ;
#123 = ORIENTED_EDGE ( 'NONE', *, *, #79, .T. ) ;
#124 = CARTESIAN_POINT ( 'NONE',  ( -29.96594337895802000, 12.16800128758021900, -2.020299992606606800 ) ) ;
#125 = CARTESIAN_POINT ( 'NONE',  ( -29.88238862687128300, 11.66294003096626100, -3.131171720413619600 ) ) ;
#126 = EDGE_LOOP ( 'NONE', ( #136, #132, #207, #205 ) ) ;
#127 = CARTESIAN_POINT ( 'NONE',  ( -29.81367291357764100, 11.21399899085235100, -3.819657267460384800 ) ) ;
#128 = ORIENTED_EDGE ( 'NONE', *, *, #216, .F. ) ;
#129 = CARTESIAN_POINT ( 'NONE',  ( -29.86570881721754100, 11.55676458420544100, -3.308004164648904200 ) ) ;
#130 = DIRECTION ( 'NONE',  ( 0.0000000000000000000, 0.0000000000000000000, -1.000000000000000000 ) ) ;
#131 = CARTESIAN_POINT ( 'NONE',  ( -29.77664571247911600, 10.95559063224075800, -4.133422534589885600 ) ) ;
#132 = ORIENTED_EDGE ( 'NONE', *, *, #216, .T. ) ;
#133 = CARTESIAN_POINT ( 'NONE',  ( -29.56485705354995700, 3.478576978427089900, -5.605655037294647900 ) ) ;
#134 = CARTESIAN_POINT ( 'NONE',  ( -29.59496114045234400, 9.381408426045959800, -5.424313179892510400 ) ) ;
#135 = DIRECTION ( 'NONE',  ( -0.0000000000000000000, -1.000000000000000000, -0.0000000000000000000 ) ) ;
#136 = ORIENTED_EDGE ( 'NONE', *, *, #179, .T. ) ;
#137 = CARTESIAN_POINT ( 'NONE',  ( -29.70248437992304200, 2.116544153882820000, -4.705562534964006900 ) ) ;
#138 = CARTESIAN_POINT ( 'NONE',  ( -29.77662621739559200, 1.544550894122710200, 4.133582093462427700 ) ) ;
#139 = UNCERTAINTY_MEASURE_WITH_UNIT (LENGTH_MEASURE( 1.000000000000000100E-005 ), #168, 'distance_accuracy_value', 'NONE');
#140 = VERTEX_POINT ( 'NONE', #145 ) ;
#141 = CARTESIAN_POINT ( 'NONE',  ( -29.53571863589570500, 3.846268972908428300, -5.780001201944647200 ) ) ;
#142 = CARTESIAN_POINT ( 'NONE',  ( -29.91337066529880300, 0.6444330057916641800, 2.771600935506443700 ) ) ;
#143 = B_SPLINE_CURVE_WITH_KNOTS ( 'NONE', 3,
 ( #154, #65, #101, #32, #62, #173, #42, #192, #134, #33, #93, #131, #127, #129, #125, #122, #121, #124, #86, #83, #74, #75, #76, #80, #69, #49, #52, #53, #54, #66, #47, #26, #172, #36, #37, #38, #43, #44, #24, #21, #22, #12, #9, #6 ),
 .UNSPECIFIED., .F., .F.,
 ( 4, 2, 2, 2, 2, 2, 2, 2, 1, 2, 2, 2, 2, 2, 2, 2, 2, 2, 2, 1, 2, 2, 4 ),
 ( -0.009783677736233368700, -0.008560706155701380100, -0.007949220365435386700, -0.007337734575169391600, -0.006114762994637397800, -0.004891791414105404000, -0.003668819833573410200, -0.003057334043307414200, -0.002445848253041417300, -0.001834362462775421300, -0.001222876672509426100, 9.490802256595376500E-008, 0.001223066488554556300, 0.001834552278820549700, 0.002446038069086543100, 0.003669009649618535200, 0.004891981230150525500, 0.006114952810682515800, 0.006726438600948509200, 0.007337924391214506100, 0.007949410181480503000, 0.008560895971746499900, 0.009783867552278490200 ),
 .UNSPECIFIED. ) ;
#144 = AXIS2_PLACEMENT_3D ( 'NONE', #163, #167, #73 ) ;
#145 = CARTESIAN_POINT ( 'NONE',  ( -27.45479566514873700, 6.250000000000000000, -6.249999999999997300 ) ) ;
#146 = CARTESIAN_POINT ( 'NONE',  ( -29.45192361178159900, 6.250000000000000900, 6.250000000000003600 ) ) ;
#147 = ORIENTED_EDGE ( 'NONE', *, *, #81, .T. ) ;
#148 = CARTESIAN_POINT ( 'NONE',  ( -29.98727958292683800, 0.2094913810596311100, -1.617682679306467400 ) ) ;
#149 = CARTESIAN_POINT ( 'NONE',  ( -29.45951427034312400, 5.427609325689174600, -6.209344398756369000 ) ) ;
#150 = CARTESIAN_POINT ( 'NONE',  ( -29.45192361178159900, 5.836414465713441600, 6.250000000000002700 ) ) ;
#151 = PRESENTATION_STYLE_ASSIGNMENT (( #111 ) ) ;
#152 =( NAMED_UNIT ( * ) SI_UNIT ( $, .STERADIAN. ) SOLID_ANGLE_UNIT ( ) );
#153 = CARTESIAN_POINT ( 'NONE',  ( -29.45192361178159900, 6.250000000000000900, 6.250000000000003600 ) ) ;
#154 = CARTESIAN_POINT ( 'NONE',  ( -29.45192361178159500, 6.250000000000000000, -6.249999999999996400 ) ) ;
#155 = COLOUR_RGB ( '',1.000000000000000000, 1.000000000000000000, 1.000000000000000000 ) ;
#156 = ADVANCED_BREP_SHAPE_REPRESENTATION ( '155277', ( #189, #144 ), #11 ) ;
#157 = AXIS2_PLACEMENT_3D ( 'NONE', #191, #190, #88 ) ;
#158 =( LENGTH_UNIT ( ) NAMED_UNIT ( * ) SI_UNIT ( .MILLI., .METRE. ) );
#159 = PRODUCT_DEFINITION_CONTEXT ( 'detailed design', #91, 'design' ) ;
#160 = DIRECTION ( 'NONE',  ( 1.000000000000000000, -2.465190328815661900E-032, -2.497546408665962100E-016 ) ) ;
#161 = DIRECTION ( 'NONE',  ( 1.000000000000000000, -0.0000000000000000000, -2.775557561562888400E-016 ) ) ;
#162 = DIRECTION ( 'NONE',  ( 0.0000000000000000000, 0.0000000000000000000, -1.000000000000000000 ) ) ;
#163 = CARTESIAN_POINT ( 'NONE',  ( 0.0000000000000000000, 0.0000000000000000000, 0.0000000000000000000 ) ) ;
#164 = LINE ( 'NONE', #14, #50 ) ;
#165 = CARTESIAN_POINT ( 'NONE',  ( 4.355204334851265500, 12.50000000000000000, 4.286263797015675000E-017 ) ) ;
#166 = CARTESIAN_POINT ( 'NONE',  ( -29.81475368648741100, 1.278656376907702600, -3.809809847285587500 ) ) ;
#167 = DIRECTION ( 'NONE',  ( 0.0000000000000000000, 0.0000000000000000000, 1.000000000000000000 ) ) ;
#168 =( LENGTH_UNIT ( ) NAMED_UNIT ( * ) SI_UNIT ( .MILLI., .METRE. ) );
#169 = DIRECTION ( 'NONE',  ( 1.000000000000000000, -0.0000000000000000000, -2.775557561562888400E-016 ) ) ;
#170 = ORIENTED_EDGE ( 'NONE', *, *, #5, .T. ) ;
#171 = CARTESIAN_POINT ( 'NONE',  ( -29.91489601701138700, 0.6337932946012413400, -2.772772913296261100 ) ) ;
#172 = CARTESIAN_POINT ( 'NONE',  ( -29.70246785620713600, 10.38331950200134400, 4.705680824151187400 ) ) ;
#173 = CARTESIAN_POINT ( 'NONE',  ( -29.51110204538716900, 8.260791810474152900, -5.921262874398732600 ) ) ;
#174 = ORIENTED_EDGE ( 'NONE', *, *, #5, .F. ) ;
#175 = CARTESIAN_POINT ( 'NONE',  ( -27.45479566514873700, 6.250000000000000900, 6.250000000000002700 ) ) ;
#176 = CYLINDRICAL_SURFACE ( 'NONE', #199, 6.250000000000000000 ) ;
#177 =( NAMED_UNIT ( * ) SI_UNIT ( $, .STERADIAN. ) SOLID_ANGLE_UNIT ( ) );
#178 = VERTEX_POINT ( 'NONE', #153 ) ;
#179 = EDGE_CURVE ( 'NONE', #106, #178, #143, .T. ) ;
#180 = PRODUCT_DEFINITION_SHAPE ( 'NONE', 'NONE',  #55 ) ;
#181 = VECTOR ( 'NONE', #206, 1000.000000000000000 ) ;
#182 =( NAMED_UNIT ( * ) PLANE_ANGLE_UNIT ( ) SI_UNIT ( $, .RADIAN. ) );
#183 = PRODUCT_RELATED_PRODUCT_CATEGORY ( 'part', '', ( #2 ) ) ;
#184 = FILL_AREA_STYLE ('',( #112 ) ) ;
#185 = CARTESIAN_POINT ( 'NONE',  ( -27.45479566514873700, 6.250000000000000000, 2.416066143026347500E-015 ) ) ;
#186 = CARTESIAN_POINT ( 'NONE',  ( -29.48113018564978600, 4.830306642852694800, 6.090032848528125900 ) ) ;
#187 = CARTESIAN_POINT ( 'NONE',  ( -29.48148587465525200, 4.821552467785553000, -6.088060751881550400 ) ) ;
#188 = EDGE_CURVE ( 'NONE', #178, #106, #107, .T. ) ;
#189 = MANIFOLD_SOLID_BREP ( 'ÇÐ³ý-À­Éì8', #8 ) ;
#190 = DIRECTION ( 'NONE',  ( 1.000000000000000000, -2.465190328815661900E-032, -2.497546408665962100E-016 ) ) ;
#191 = CARTESIAN_POINT ( 'NONE',  ( -27.45479566514873700, 6.250000000000000000, 2.416066143026347500E-015 ) ) ;
#192 = CARTESIAN_POINT ( 'NONE',  ( -29.56335667157301100, 9.022921229215612000, -5.616131177393847400 ) ) ;
#193 = CYLINDRICAL_SURFACE ( 'NONE', #61, 34.38000000000007400 ) ;
#194 = CARTESIAN_POINT ( 'NONE',  ( -29.94219770202157300, 0.4700767526751718500, 2.403917916916981800 ) ) ;
#195 = CIRCLE ( 'NONE', #120, 6.250000000000000000 ) ;
#196 = CARTESIAN_POINT ( 'NONE',  ( -29.99606093369067500, 0.1599214410774532400, -1.419499630641216400 ) ) ;
#197 = VERTEX_POINT ( 'NONE', #175 ) ;
#198 = CARTESIAN_POINT ( 'NONE',  ( -27.45479566514873700, 12.50000000000000000, -6.249999999999995600 ) ) ;
#199 = AXIS2_PLACEMENT_3D ( 'NONE', #213, #201, #130 ) ;
#200 = CARTESIAN_POINT ( 'NONE',  ( -29.96651890382510800, 0.3286632586092702600, -2.010575246410152100 ) ) ;
#201 = DIRECTION ( 'NONE',  ( 1.000000000000000000, -0.0000000000000000000, -2.775557561562888400E-016 ) ) ;
#202 = CARTESIAN_POINT ( 'NONE',  ( -29.45192361178159500, 6.250000000000000000, -6.249999999999996400 ) ) ;
#203 = CARTESIAN_POINT ( 'NONE',  ( -40.15479566514873300, 6.250000000000000000, -6.249999999999994700 ) ) ;
#204 = FACE_OUTER_BOUND ( 'NONE', #126, .T. ) ;
#205 = ORIENTED_EDGE ( 'NONE', *, *, #81, .F. ) ;
#206 = DIRECTION ( 'NONE',  ( 1.000000000000000000, -0.0000000000000000000, -2.775557561562888400E-016 ) ) ;
#207 = ORIENTED_EDGE ( 'NONE', *, *, #79, .F. ) ;
#208 = CARTESIAN_POINT ( 'NONE',  ( -29.88236761740910900, 0.8371927826816768500, 3.131400820783687400 ) ) ;
#209 = FILL_AREA_STYLE_COLOUR ( '', #100 ) ;
#210 =( GEOMETRIC_REPRESENTATION_CONTEXT ( 3 ) GLOBAL_UNCERTAINTY_ASSIGNED_CONTEXT ( ( #77 ) ) GLOBAL_UNIT_ASSIGNED_CONTEXT ( ( #158, #70, #4 ) ) REPRESENTATION_CONTEXT ( 'NONE', 'WORKASPACE' ) );
#211 = PRODUCT_CONTEXT ( 'NONE', #57, 'mechanical' ) ;
#212 = DIRECTION ( 'NONE',  ( 0.0000000000000000000, 0.0000000000000000000, -1.000000000000000000 ) ) ;
#213 = CARTESIAN_POINT ( 'NONE',  ( -40.15479566514873300, 6.250000000000000000, 5.941024246211215100E-015 ) ) ;
#214 = FACE_OUTER_BOUND ( 'NONE', #45, .T. ) ;
#215 = PLANE ( 'NONE',  #103 ) ;
#216 = EDGE_CURVE ( 'NONE', #178, #197, #164, .T. ) ;
#217 = CARTESIAN_POINT ( 'NONE',  ( -29.51167832836894400, 4.229600980762006300, -5.917967311929559500 ) ) ;
#218 = STYLED_ITEM ( 'NONE', ( #67 ), #189 ) ;
#219 = DIRECTION ( 'NONE',  ( 1.000000000000000000, 0.0000000000000000000, -2.775557561562892300E-016 ) ) ;
#220 = ORIENTED_EDGE ( 'NONE', *, *, #188, .F. ) ;
ENDSEC;
END-ISO-10303-21;
