ISO-10303-21;
HEADER;
FILE_DESCRIPTION (( 'STEP AP214' ),
    '1' );
FILE_NAME ('145201.STEP',
    '2019-06-13T07:48:16',
    ( 'user' ),
    ( 'Î¢ÈíÖÐ¹ú' ),
    'SwSTEP 2.0',
    'SolidWorks 2016',
    '' );
FILE_SCHEMA (( 'AUTOMOTIVE_DESIGN' ));
ENDSEC;

DATA;
#1 = AXIS2_PLACEMENT_3D ( 'NONE', #11, #267, #43 ) ;
#2 = SURFACE_STYLE_FILL_AREA ( #93 ) ;
#3 = CIRCLE ( 'NONE', #330, 20.00000000000004600 ) ;
#4 = UNCERTAINTY_MEASURE_WITH_UNIT (LENGTH_MEASURE( 1.000000000000000100E-005 ), #248, 'distance_accuracy_value', 'NONE');
#5 = DIRECTION ( 'NONE',  ( -0.0000000000000000000, 1.000000000000000000, 0.0000000000000000000 ) ) ;
#6 = ORIENTED_EDGE ( 'NONE', *, *, #120, .F. ) ;
#7 = DIRECTION ( 'NONE',  ( 0.0000000000000000000, 0.0000000000000000000, 1.000000000000000000 ) ) ;
#8 = CARTESIAN_POINT ( 'NONE',  ( -0.8160621761658039000, 0.0000000000000000000, 0.0000000000000000000 ) ) ;
#9 = EDGE_CURVE ( 'NONE', #128, #254, #39, .T. ) ;
#10 = DIRECTION ( 'NONE',  ( 0.0000000000000000000, 1.224646799147353200E-016, -1.000000000000000000 ) ) ;
#11 = CARTESIAN_POINT ( 'NONE',  ( 250.6338038906036400, 0.0000000000000000000, 0.0000000000000000000 ) ) ;
#12 = DIRECTION ( 'NONE',  ( 0.0000000000000000000, 0.0000000000000000000, -1.000000000000000000 ) ) ;
#13 = CARTESIAN_POINT ( 'NONE',  ( 0.0000000000000000000, 0.0000000000000000000, 0.0000000000000000000 ) ) ;
#14 = SPHERICAL_SURFACE ( 'NONE', #272, 40.89999999999995600 ) ;
#15 = AXIS2_PLACEMENT_3D ( 'NONE', #78, #106, #160 ) ;
#16 = EDGE_CURVE ( 'NONE', #99, #305, #276, .T. ) ;
#17 = DIRECTION ( 'NONE',  ( 0.0000000000000000000, 0.0000000000000000000, -1.000000000000000000 ) ) ;
#18 = DIRECTION ( 'NONE',  ( -1.000000000000000000, -0.0000000000000000000, -0.0000000000000000000 ) ) ;
#19 = ORIENTED_EDGE ( 'NONE', *, *, #261, .T. ) ;
#20 = ORIENTED_EDGE ( 'NONE', *, *, #35, .F. ) ;
#21 = AXIS2_PLACEMENT_3D ( 'NONE', #213, #339, #309 ) ;
#22 = CARTESIAN_POINT ( 'NONE',  ( 264.0155162950707100, 0.0000000000000000000, 0.0000000000000000000 ) ) ;
#23 = DIRECTION ( 'NONE',  ( 0.0000000000000000000, 0.0000000000000000000, 1.000000000000000000 ) ) ;
#24 = SPHERICAL_SURFACE ( 'NONE', #228, 40.89999999999997700 ) ;
#25 = ORIENTED_EDGE ( 'NONE', *, *, #44, .F. ) ;
#26 = ADVANCED_FACE ( 'NONE', ( #295 ), #24, .F. ) ;
#27 = AXIS2_PLACEMENT_3D ( 'NONE', #147, #345, #54 ) ;
#28 = ORIENTED_EDGE ( 'NONE', *, *, #32, .F. ) ;
#29 = ORIENTED_EDGE ( 'NONE', *, *, #133, .T. ) ;
#30 = SPHERICAL_SURFACE ( 'NONE', #156, 54.83800000000000800 ) ;
#31 = APPLICATION_CONTEXT ( 'automotive_design' ) ;
#32 = EDGE_CURVE ( 'NONE', #215, #99, #183, .T. ) ;
#33 = VERTEX_POINT ( 'NONE', #188 ) ;
#34 = CIRCLE ( 'NONE', #15, 20.00000000000005000 ) ;
#35 = EDGE_CURVE ( 'NONE', #33, #151, #233, .T. ) ;
#36 = CARTESIAN_POINT ( 'NONE',  ( 297.3109946138207000, 0.0000000000000000000, 4.969274113045846000E-023 ) ) ;
#37 = ORIENTED_EDGE ( 'NONE', *, *, #16, .T. ) ;
#38 = CARTESIAN_POINT ( 'NONE',  ( 387.8609946138207600, 0.0000000000000000000, 0.0000000000000000000 ) ) ;
#39 = CIRCLE ( 'NONE', #27, 40.89999999999995600 ) ;
#40 = CARTESIAN_POINT ( 'NONE',  ( 261.6345317846668200, 0.0000000000000000000, -19.99999999999996100 ) ) ;
#41 = SPHERICAL_SURFACE ( 'NONE', #204, 54.83800000000000800 ) ;
#42 = AXIS2_PLACEMENT_3D ( 'NONE', #8, #51, #75 ) ;
#43 = DIRECTION ( 'NONE',  ( 0.0000000000000000000, 0.0000000000000000000, 1.000000000000000000 ) ) ;
#44 = EDGE_CURVE ( 'NONE', #215, #128, #105, .T. ) ;
#45 = ORIENTED_EDGE ( 'NONE', *, *, #32, .T. ) ;
#46 = AXIS2_PLACEMENT_3D ( 'NONE', #163, #240, #291 ) ;
#47 = PRESENTATION_STYLE_ASSIGNMENT (( #142 ) ) ;
#48 = DIRECTION ( 'NONE',  ( -2.249639673992786400E-032, -1.000000000000000000, -1.224646799147353200E-016 ) ) ;
#49 = DIRECTION ( 'NONE',  ( 0.0000000000000000000, 0.0000000000000000000, 1.000000000000000000 ) ) ;
#50 = DIRECTION ( 'NONE',  ( -1.000000000000000000, -0.0000000000000000000, -0.0000000000000000000 ) ) ;
#51 = DIRECTION ( 'NONE',  ( -1.000000000000000000, -0.0000000000000000000, 1.836970198721029700E-016 ) ) ;
#52 = ORIENTED_EDGE ( 'NONE', *, *, #135, .T. ) ;
#53 = AXIS2_PLACEMENT_3D ( 'NONE', #258, #187, #88 ) ;
#54 = DIRECTION ( 'NONE',  ( 0.0000000000000000000, 0.0000000000000000000, 1.000000000000000000 ) ) ;
#55 = CARTESIAN_POINT ( 'NONE',  ( 199.5729946138207300, 0.0000000000000000000, 4.969511586685587000E-023 ) ) ;
#56 = CARTESIAN_POINT ( 'NONE',  ( 250.6338038906036400, 0.0000000000000000000, -4.619059104370497400E-014 ) ) ;
#57 = ADVANCED_FACE ( 'NONE', ( #201 ), #290, .F. ) ;
#58 = FACE_OUTER_BOUND ( 'NONE', #95, .T. ) ;
#59 =( LENGTH_UNIT ( ) NAMED_UNIT ( * ) SI_UNIT ( .MILLI., .METRE. ) );
#60 = AXIS2_PLACEMENT_3D ( 'NONE', #177, #102, #12 ) ;
#61 = SURFACE_STYLE_FILL_AREA ( #282 ) ;
#62 =( LENGTH_UNIT ( ) NAMED_UNIT ( * ) SI_UNIT ( .MILLI., .METRE. ) );
#63 = CLOSED_SHELL ( 'NONE', ( #26, #81, #287, #126, #152, #205 ) ) ;
#64 = DIRECTION ( 'NONE',  ( 0.0000000000000000000, 1.224646799147353200E-016, -1.000000000000000000 ) ) ;
#65 = AXIS2_PLACEMENT_3D ( 'NONE', #314, #203, #150 ) ;
#66 = EDGE_CURVE ( 'NONE', #151, #33, #34, .T. ) ;
#67 = CARTESIAN_POINT ( 'NONE',  ( 387.8609946138207600, 0.0000000000000000000, 0.0000000000000000000 ) ) ;
#68 = MANIFOLD_SOLID_BREP ( 'Ðý×ª3', #324 ) ;
#69 = FACE_OUTER_BOUND ( 'NONE', #118, .T. ) ;
#70 = AXIS2_PLACEMENT_3D ( 'NONE', #298, #337, #17 ) ;
#71 =( NAMED_UNIT ( * ) SI_UNIT ( $, .STERADIAN. ) SOLID_ANGLE_UNIT ( ) );
#72 = SURFACE_SIDE_STYLE ('',( #212 ) ) ;
#73 = DIRECTION ( 'NONE',  ( 0.0000000000000000000, 0.0000000000000000000, -1.000000000000000000 ) ) ;
#74 = FACE_OUTER_BOUND ( 'NONE', #197, .T. ) ;
#75 = DIRECTION ( 'NONE',  ( 1.843143693225353300E-016, 0.0000000000000000000, 1.000000000000000000 ) ) ;
#76 = DIRECTION ( 'NONE',  ( -0.0000000000000000000, -1.000000000000000000, -0.0000000000000000000 ) ) ;
#77 = STYLED_ITEM ( 'NONE', ( #246 ), #299 ) ;
#78 = CARTESIAN_POINT ( 'NONE',  ( 261.6345317846668200, 0.0000000000000000000, -4.821139197426830300E-014 ) ) ;
#79 = CIRCLE ( 'NONE', #153, 54.83800000000000800 ) ;
#80 = ORIENTED_EDGE ( 'NONE', *, *, #103, .T. ) ;
#81 = ADVANCED_FACE ( 'NONE', ( #98 ), #284, .T. ) ;
#82 = ORIENTED_EDGE ( 'NONE', *, *, #265, .T. ) ;
#83 = ADVANCED_FACE ( 'NONE', ( #74 ), #159, .T. ) ;
#84 = PRESENTATION_LAYER_ASSIGNMENT (  '', '', ( #77 ) ) ;
#85 = ORIENTED_EDGE ( 'NONE', *, *, #326, .F. ) ;
#86 = FACE_OUTER_BOUND ( 'NONE', #231, .T. ) ;
#87 = LINE ( 'NONE', #101, #320 ) ;
#88 = DIRECTION ( 'NONE',  ( 0.0000000000000000000, 0.0000000000000000000, -1.000000000000000000 ) ) ;
#89 = CARTESIAN_POINT ( 'NONE',  ( 297.3109946138207000, 0.0000000000000000000, 4.969274113045846000E-023 ) ) ;
#90 = EDGE_LOOP ( 'NONE', ( #158, #173, #252, #306 ) ) ;
#91 = CARTESIAN_POINT ( 'NONE',  ( 250.6338038906036400, 0.0000000000000000000, 19.99999999999999600 ) ) ;
#92 = CYLINDRICAL_SURFACE ( 'NONE', #1, 19.99999999999998200 ) ;
#93 = FILL_AREA_STYLE ('',( #344 ) ) ;
#94 = SURFACE_SIDE_STYLE ('',( #61 ) ) ;
#95 = EDGE_LOOP ( 'NONE', ( #293, #190, #167 ) ) ;
#96 = DIRECTION ( 'NONE',  ( -1.000000000000000000, -0.0000000000000000000, 1.836970198721029700E-016 ) ) ;
#97 =( GEOMETRIC_REPRESENTATION_CONTEXT ( 3 ) GLOBAL_UNCERTAINTY_ASSIGNED_CONTEXT ( ( #243 ) ) GLOBAL_UNIT_ASSIGNED_CONTEXT ( ( #59, #321, #279 ) ) REPRESENTATION_CONTEXT ( 'NONE', 'WORKASPACE' ) );
#98 = FACE_OUTER_BOUND ( 'NONE', #90, .T. ) ;
#99 = VERTEX_POINT ( 'NONE', #342 ) ;
#100 = DIRECTION ( 'NONE',  ( -0.0000000000000000000, -1.000000000000000000, -0.0000000000000000000 ) ) ;
#101 = CARTESIAN_POINT ( 'NONE',  ( 250.6338038906036400, 0.0000000000000000000, 19.99999999999998200 ) ) ;
#102 = DIRECTION ( 'NONE',  ( -0.0000000000000000000, -1.000000000000000000, -0.0000000000000000000 ) ) ;
#103 = EDGE_CURVE ( 'NONE', #99, #215, #206, .T. ) ;
#104 = ORIENTED_EDGE ( 'NONE', *, *, #317, .T. ) ;
#105 = LINE ( 'NONE', #315, #300 ) ;
#106 = DIRECTION ( 'NONE',  ( -1.000000000000000000, -0.0000000000000000000, 1.836970198721029700E-016 ) ) ;
#107 = DIRECTION ( 'NONE',  ( 0.0000000000000000000, 0.0000000000000000000, 1.000000000000000000 ) ) ;
#108 = MECHANICAL_DESIGN_GEOMETRIC_PRESENTATION_REPRESENTATION (  '', ( #171 ), #253 ) ;
#109 = ORIENTED_EDGE ( 'NONE', *, *, #103, .F. ) ;
#110 = ORIENTED_EDGE ( 'NONE', *, *, #273, .T. ) ;
#111 = CIRCLE ( 'NONE', #53, 54.83800000000000800 ) ;
#112 = PRODUCT_DEFINITION_FORMATION_WITH_SPECIFIED_SOURCE ( 'ÈÎºÎ', '', #166, .NOT_KNOWN. ) ;
#113 = VERTEX_POINT ( 'NONE', #239 ) ;
#114 = CARTESIAN_POINT ( 'NONE',  ( 264.0155162950707100, 2.449293598294706100E-015, -19.99999999999999600 ) ) ;
#115 = UNCERTAINTY_MEASURE_WITH_UNIT (LENGTH_MEASURE( 1.000000000000000100E-005 ), #62, 'distance_accuracy_value', 'NONE');
#116 = DIRECTION ( 'NONE',  ( 0.0000000000000000000, 0.0000000000000000000, 1.000000000000000000 ) ) ;
#117 = CARTESIAN_POINT ( 'NONE',  ( 387.8609946138207600, 0.0000000000000000000, 0.0000000000000000000 ) ) ;
#118 = EDGE_LOOP ( 'NONE', ( #209, #52, #172 ) ) ;
#119 = AXIS2_PLACEMENT_3D ( 'NONE', #13, #310, #281 ) ;
#120 = EDGE_CURVE ( 'NONE', #277, #113, #79, .T. ) ;
#121 = PRODUCT_DEFINITION_CONTEXT ( 'detailed design', #235, 'design' ) ;
#122 = EDGE_CURVE ( 'NONE', #33, #113, #336, .T. ) ;
#123 = CIRCLE ( 'NONE', #21, 19.99999999999996800 ) ;
#124 = APPLICATION_PROTOCOL_DEFINITION ( 'draft international standard', 'automotive_design', 1998, #235 ) ;
#125 = ORIENTED_EDGE ( 'NONE', *, *, #44, .T. ) ;
#126 = ADVANCED_FACE ( 'NONE', ( #227 ), #41, .F. ) ;
#127 = PRODUCT_DEFINITION ( 'Î´Öª', '', #112, #121 ) ;
#128 = VERTEX_POINT ( 'NONE', #40 ) ;
#129 = CIRCLE ( 'NONE', #186, 40.89999999999995600 ) ;
#130 = DIRECTION ( 'NONE',  ( 0.0000000000000000000, 0.0000000000000000000, 1.000000000000000000 ) ) ;
#131 =( LENGTH_UNIT ( ) NAMED_UNIT ( * ) SI_UNIT ( .MILLI., .METRE. ) );
#132 = FACE_OUTER_BOUND ( 'NONE', #283, .T. ) ;
#133 = EDGE_CURVE ( 'NONE', #151, #322, #136, .T. ) ;
#134 = DIRECTION ( 'NONE',  ( 0.0000000000000000000, 0.0000000000000000000, -1.000000000000000000 ) ) ;
#135 = EDGE_CURVE ( 'NONE', #168, #128, #123, .T. ) ;
#136 = CIRCLE ( 'NONE', #221, 40.89999999999997700 ) ;
#137 = CARTESIAN_POINT ( 'NONE',  ( 297.3109946138207000, 0.0000000000000000000, 4.969274113045846000E-023 ) ) ;
#138 =( NAMED_UNIT ( * ) PLANE_ANGLE_UNIT ( ) SI_UNIT ( $, .RADIAN. ) );
#139 = DIRECTION ( 'NONE',  ( 2.249639673992786400E-032, 1.000000000000000000, 1.224646799147353200E-016 ) ) ;
#140 = PRODUCT_RELATED_PRODUCT_CATEGORY ( 'part', '', ( #166 ) ) ;
#141 = CIRCLE ( 'NONE', #189, 19.99999999999996800 ) ;
#142 = SURFACE_STYLE_USAGE ( .BOTH. , #94 ) ;
#143 = ORIENTED_EDGE ( 'NONE', *, *, #289, .T. ) ;
#144 = CARTESIAN_POINT ( 'NONE',  ( 261.6345317846668200, 0.0000000000000000000, 20.00000000000000000 ) ) ;
#145 = EDGE_CURVE ( 'NONE', #215, #305, #211, .T. ) ;
#146 = EDGE_LOOP ( 'NONE', ( #6, #143, #104 ) ) ;
#147 = CARTESIAN_POINT ( 'NONE',  ( 297.3109946138207000, 0.0000000000000000000, 4.969274113045846000E-023 ) ) ;
#148 = CARTESIAN_POINT ( 'NONE',  ( 250.6338038906036400, 0.0000000000000000000, 0.0000000000000000000 ) ) ;
#149 = AXIS2_PLACEMENT_3D ( 'NONE', #56, #335, #130 ) ;
#150 = DIRECTION ( 'NONE',  ( 0.0000000000000000000, 0.0000000000000000000, 1.000000000000000000 ) ) ;
#151 = VERTEX_POINT ( 'NONE', #144 ) ;
#152 = ADVANCED_FACE ( 'NONE', ( #155 ), #341, .T. ) ;
#153 = AXIS2_PLACEMENT_3D ( 'NONE', #230, #139, #338 ) ;
#154 = CIRCLE ( 'NONE', #149, 20.00000000000004600 ) ;
#155 = FACE_OUTER_BOUND ( 'NONE', #297, .T. ) ;
#156 = AXIS2_PLACEMENT_3D ( 'NONE', #198, #5, #23 ) ;
#157 = CARTESIAN_POINT ( 'NONE',  ( 262.4109946138207800, 0.0000000000000000000, -7.681597047651773800E-015 ) ) ;
#158 = ORIENTED_EDGE ( 'NONE', *, *, #66, .T. ) ;
#159 = CYLINDRICAL_SURFACE ( 'NONE', #304, 19.99999999999998200 ) ;
#160 = DIRECTION ( 'NONE',  ( 0.0000000000000000000, 0.0000000000000000000, 1.000000000000000000 ) ) ;
#161 = DIRECTION ( 'NONE',  ( -1.000000000000000000, -0.0000000000000000000, 1.836970198721029700E-016 ) ) ;
#162 = PRESENTATION_LAYER_ASSIGNMENT (  '', '', ( #171 ) ) ;
#163 = CARTESIAN_POINT ( 'NONE',  ( 261.6345317846668200, 0.0000000000000000000, -4.821139197426830300E-014 ) ) ;
#164 = VECTOR ( 'NONE', #96, 1000.000000000000000 ) ;
#165 = DIRECTION ( 'NONE',  ( -0.0000000000000000000, 1.000000000000000000, 0.0000000000000000000 ) ) ;
#166 = PRODUCT ( '145201', '145201', '', ( #271 ) ) ;
#167 = ORIENTED_EDGE ( 'NONE', *, *, #9, .F. ) ;
#168 = VERTEX_POINT ( 'NONE', #222 ) ;
#169 =( GEOMETRIC_REPRESENTATION_CONTEXT ( 3 ) GLOBAL_UNCERTAINTY_ASSIGNED_CONTEXT ( ( #4 ) ) GLOBAL_UNIT_ASSIGNED_CONTEXT ( ( #248, #184, #194 ) ) REPRESENTATION_CONTEXT ( 'NONE', 'WORKASPACE' ) );
#170 = DIRECTION ( 'NONE',  ( -1.000000000000000000, -0.0000000000000000000, 1.836970198721029700E-016 ) ) ;
#171 = STYLED_ITEM ( 'NONE', ( #294 ), #68 ) ;
#172 = ORIENTED_EDGE ( 'NONE', *, *, #9, .T. ) ;
#173 = ORIENTED_EDGE ( 'NONE', *, *, #122, .T. ) ;
#174 = DIRECTION ( 'NONE',  ( 0.0000000000000000000, -1.000000000000000000, -1.224646799147353200E-016 ) ) ;
#175 = DIRECTION ( 'NONE',  ( -1.000000000000000000, -0.0000000000000000000, -0.0000000000000000000 ) ) ;
#176 = STYLED_ITEM ( 'NONE', ( #47 ), #313 ) ;
#177 = CARTESIAN_POINT ( 'NONE',  ( 387.8609946138207600, 0.0000000000000000000, 0.0000000000000000000 ) ) ;
#178 = ORIENTED_EDGE ( 'NONE', *, *, #273, .F. ) ;
#179 = FILL_AREA_STYLE_COLOUR ( '', #343 ) ;
#180 = ADVANCED_FACE ( 'NONE', ( #86 ), #92, .T. ) ;
#181 = ORIENTED_EDGE ( 'NONE', *, *, #66, .F. ) ;
#182 = AXIS2_PLACEMENT_3D ( 'NONE', #137, #217, #116 ) ;
#183 = CIRCLE ( 'NONE', #65, 19.99999999999999600 ) ;
#184 =( NAMED_UNIT ( * ) PLANE_ANGLE_UNIT ( ) SI_UNIT ( $, .RADIAN. ) );
#185 = ORIENTED_EDGE ( 'NONE', *, *, #289, .F. ) ;
#186 = AXIS2_PLACEMENT_3D ( 'NONE', #36, #174, #64 ) ;
#187 = DIRECTION ( 'NONE',  ( 0.0000000000000000000, -1.000000000000000000, 0.0000000000000000000 ) ) ;
#188 = CARTESIAN_POINT ( 'NONE',  ( 261.6345317846668200, 2.449293598294712400E-015, -20.00000000000009600 ) ) ;
#189 = AXIS2_PLACEMENT_3D ( 'NONE', #200, #280, #274 ) ;
#190 = ORIENTED_EDGE ( 'NONE', *, *, #262, .T. ) ;
#191 = CARTESIAN_POINT ( 'NONE',  ( -0.8160621761658002300, 0.0000000000000000000, 20.00000000000004600 ) ) ;
#192 = DIRECTION ( 'NONE',  ( -0.0000000000000000000, -1.000000000000000000, -0.0000000000000000000 ) ) ;
#193 = DIRECTION ( 'NONE',  ( 0.0000000000000000000, 1.000000000000000000, -0.0000000000000000000 ) ) ;
#194 =( NAMED_UNIT ( * ) SI_UNIT ( $, .STERADIAN. ) SOLID_ANGLE_UNIT ( ) );
#195 = PRESENTATION_LAYER_ASSIGNMENT (  '', '', ( #176 ) ) ;
#196 = LINE ( 'NONE', #191, #256 ) ;
#197 = EDGE_LOOP ( 'NONE', ( #25, #45, #268, #210 ) ) ;
#198 = CARTESIAN_POINT ( 'NONE',  ( 199.5729946138207300, 0.0000000000000000000, 4.969511586685587000E-023 ) ) ;
#199 = SURFACE_SIDE_STYLE ('',( #2 ) ) ;
#200 = CARTESIAN_POINT ( 'NONE',  ( 261.6345317846668200, 0.0000000000000000000, 0.0000000000000000000 ) ) ;
#201 = FACE_OUTER_BOUND ( 'NONE', #332, .T. ) ;
#202 = AXIS2_PLACEMENT_3D ( 'NONE', #67, #193, #7 ) ;
#203 = DIRECTION ( 'NONE',  ( -1.000000000000000000, -0.0000000000000000000, -0.0000000000000000000 ) ) ;
#204 = AXIS2_PLACEMENT_3D ( 'NONE', #55, #165, #312 ) ;
#205 = ADVANCED_FACE ( 'NONE', ( #208 ), #288, .F. ) ;
#206 = CIRCLE ( 'NONE', #219, 19.99999999999999600 ) ;
#207 = ORIENTED_EDGE ( 'NONE', *, *, #265, .F. ) ;
#208 = FACE_OUTER_BOUND ( 'NONE', #269, .T. ) ;
#209 = ORIENTED_EDGE ( 'NONE', *, *, #262, .F. ) ;
#210 = ORIENTED_EDGE ( 'NONE', *, *, #214, .F. ) ;
#211 = CIRCLE ( 'NONE', #202, 125.4500000000000000 ) ;
#212 = SURFACE_STYLE_FILL_AREA ( #347 ) ;
#213 = CARTESIAN_POINT ( 'NONE',  ( 261.6345317846668200, 0.0000000000000000000, 0.0000000000000000000 ) ) ;
#214 = EDGE_CURVE ( 'NONE', #128, #168, #141, .T. ) ;
#215 = VERTEX_POINT ( 'NONE', #114 ) ;
#216 = DIRECTION ( 'NONE',  ( 1.843143693225353300E-016, 0.0000000000000000000, 1.000000000000000000 ) ) ;
#217 = DIRECTION ( 'NONE',  ( -0.0000000000000000000, 1.000000000000000000, 0.0000000000000000000 ) ) ;
#218 = FACE_OUTER_BOUND ( 'NONE', #308, .T. ) ;
#219 = AXIS2_PLACEMENT_3D ( 'NONE', #22, #50, #107 ) ;
#220 = ORIENTED_EDGE ( 'NONE', *, *, #133, .F. ) ;
#221 = AXIS2_PLACEMENT_3D ( 'NONE', #89, #48, #10 ) ;
#222 = CARTESIAN_POINT ( 'NONE',  ( 261.6345317846668200, -2.449293598294702200E-015, 19.99999999999996100 ) ) ;
#223 = APPLICATION_PROTOCOL_DEFINITION ( 'draft international standard', 'automotive_design', 1998, #31 ) ;
#224 = ORIENTED_EDGE ( 'NONE', *, *, #16, .F. ) ;
#225 = VERTEX_POINT ( 'NONE', #91 ) ;
#226 = DIRECTION ( 'NONE',  ( -1.000000000000000000, -0.0000000000000000000, 1.836970198721029700E-016 ) ) ;
#227 = FACE_OUTER_BOUND ( 'NONE', #146, .T. ) ;
#228 = AXIS2_PLACEMENT_3D ( 'NONE', #286, #100, #134 ) ;
#229 = DIRECTION ( 'NONE',  ( 0.0000000000000000000, 0.0000000000000000000, 1.000000000000000000 ) ) ;
#230 = CARTESIAN_POINT ( 'NONE',  ( 199.5729946138207300, 0.0000000000000000000, 4.969511586685587000E-023 ) ) ;
#231 = EDGE_LOOP ( 'NONE', ( #80, #125, #238, #85 ) ) ;
#232 = SURFACE_STYLE_USAGE ( .BOTH. , #199 ) ;
#233 = CIRCLE ( 'NONE', #46, 20.00000000000005000 ) ;
#234 = CARTESIAN_POINT ( 'NONE',  ( 256.4109946138207200, 0.0000000000000000000, 5.008805458205411900E-015 ) ) ;
#235 = APPLICATION_CONTEXT ( 'automotive_design' ) ;
#236 = CIRCLE ( 'NONE', #182, 40.89999999999997700 ) ;
#237 = CARTESIAN_POINT ( 'NONE',  ( 250.6338038906036400, 0.0000000000000000000, -4.619059104370497400E-014 ) ) ;
#238 = ORIENTED_EDGE ( 'NONE', *, *, #135, .F. ) ;
#239 = CARTESIAN_POINT ( 'NONE',  ( 250.6338038906036400, 2.449293598294711600E-015, -20.00000000000005300 ) ) ;
#240 = DIRECTION ( 'NONE',  ( -1.000000000000000000, -0.0000000000000000000, 1.836970198721029700E-016 ) ) ;
#241 = CARTESIAN_POINT ( 'NONE',  ( 297.3109946138207000, 0.0000000000000000000, 4.969274113045846000E-023 ) ) ;
#242 = AXIS2_PLACEMENT_3D ( 'NONE', #117, #301, #260 ) ;
#243 = UNCERTAINTY_MEASURE_WITH_UNIT (LENGTH_MEASURE( 1.000000000000000100E-005 ), #59, 'distance_accuracy_value', 'NONE');
#244 = ORIENTED_EDGE ( 'NONE', *, *, #120, .T. ) ;
#245 = ORIENTED_EDGE ( 'NONE', *, *, #145, .F. ) ;
#246 = PRESENTATION_STYLE_ASSIGNMENT (( #319 ) ) ;
#247 = DIRECTION ( 'NONE',  ( 0.0000000000000000000, 0.0000000000000000000, -1.000000000000000000 ) ) ;
#248 =( LENGTH_UNIT ( ) NAMED_UNIT ( * ) SI_UNIT ( .MILLI., .METRE. ) );
#249 = AXIS2_PLACEMENT_3D ( 'NONE', #331, #161, #216 ) ;
#250 = SHAPE_DEFINITION_REPRESENTATION ( #303, #299 ) ;
#251 = FILL_AREA_STYLE_COLOUR ( '', #270 ) ;
#252 = ORIENTED_EDGE ( 'NONE', *, *, #317, .F. ) ;
#253 =( GEOMETRIC_REPRESENTATION_CONTEXT ( 3 ) GLOBAL_UNCERTAINTY_ASSIGNED_CONTEXT ( ( #115 ) ) GLOBAL_UNIT_ASSIGNED_CONTEXT ( ( #62, #328, #311 ) ) REPRESENTATION_CONTEXT ( 'NONE', 'WORKASPACE' ) );
#254 = VERTEX_POINT ( 'NONE', #327 ) ;
#255 = CARTESIAN_POINT ( 'NONE',  ( -0.8160621761658076700, 2.449293598294712000E-015, -20.00000000000004600 ) ) ;
#256 = VECTOR ( 'NONE', #226, 1000.000000000000000 ) ;
#257 = DIRECTION ( 'NONE',  ( -1.000000000000000000, -0.0000000000000000000, -0.0000000000000000000 ) ) ;
#258 = CARTESIAN_POINT ( 'NONE',  ( 199.5729946138207300, 0.0000000000000000000, 4.969511586685587000E-023 ) ) ;
#259 = ADVANCED_FACE ( 'NONE', ( #69 ), #14, .T. ) ;
#260 = DIRECTION ( 'NONE',  ( 0.0000000000000000000, 1.224646799147353200E-016, -1.000000000000000000 ) ) ;
#261 = EDGE_CURVE ( 'NONE', #151, #225, #196, .T. ) ;
#262 = EDGE_CURVE ( 'NONE', #168, #254, #129, .T. ) ;
#263 = SPHERICAL_SURFACE ( 'NONE', #285, 40.89999999999995600 ) ;
#264 = ORIENTED_EDGE ( 'NONE', *, *, #145, .T. ) ;
#265 = EDGE_CURVE ( 'NONE', #33, #322, #236, .T. ) ;
#266 = SPHERICAL_SURFACE ( 'NONE', #323, 125.4500000000000000 ) ;
#267 = DIRECTION ( 'NONE',  ( -1.000000000000000000, -0.0000000000000000000, -0.0000000000000000000 ) ) ;
#268 = ORIENTED_EDGE ( 'NONE', *, *, #326, .T. ) ;
#269 = EDGE_LOOP ( 'NONE', ( #220, #20, #82 ) ) ;
#270 = COLOUR_RGB ( '',1.000000000000000000, 1.000000000000000000, 1.000000000000000000 ) ;
#271 = PRODUCT_CONTEXT ( 'NONE', #31, 'mechanical' ) ;
#272 = AXIS2_PLACEMENT_3D ( 'NONE', #241, #192, #247 ) ;
#273 = EDGE_CURVE ( 'NONE', #113, #225, #154, .T. ) ;
#274 = DIRECTION ( 'NONE',  ( 0.0000000000000000000, 0.0000000000000000000, 1.000000000000000000 ) ) ;
#275 = ORIENTED_EDGE ( 'NONE', *, *, #35, .T. ) ;
#276 = CIRCLE ( 'NONE', #242, 125.4500000000000000 ) ;
#277 = VERTEX_POINT ( 'NONE', #329 ) ;
#278 = MECHANICAL_DESIGN_GEOMETRIC_PRESENTATION_REPRESENTATION (  '', ( #77 ), #97 ) ;
#279 =( NAMED_UNIT ( * ) SI_UNIT ( $, .STERADIAN. ) SOLID_ANGLE_UNIT ( ) );
#280 = DIRECTION ( 'NONE',  ( -1.000000000000000000, -0.0000000000000000000, -0.0000000000000000000 ) ) ;
#281 = DIRECTION ( 'NONE',  ( 1.000000000000000000, 0.0000000000000000000, 0.0000000000000000000 ) ) ;
#282 = FILL_AREA_STYLE ('',( #179 ) ) ;
#283 = EDGE_LOOP ( 'NONE', ( #109, #37, #245 ) ) ;
#284 = CYLINDRICAL_SURFACE ( 'NONE', #42, 20.00000000000004600 ) ;
#285 = AXIS2_PLACEMENT_3D ( 'NONE', #333, #307, #73 ) ;
#286 = CARTESIAN_POINT ( 'NONE',  ( 297.3109946138207000, 0.0000000000000000000, 4.969274113045846000E-023 ) ) ;
#287 = ADVANCED_FACE ( 'NONE', ( #218 ), #30, .F. ) ;
#288 = SPHERICAL_SURFACE ( 'NONE', #70, 40.89999999999997700 ) ;
#289 = EDGE_CURVE ( 'NONE', #277, #225, #111, .T. ) ;
#290 = SPHERICAL_SURFACE ( 'NONE', #60, 125.4500000000000000 ) ;
#291 = DIRECTION ( 'NONE',  ( 0.0000000000000000000, 0.0000000000000000000, 1.000000000000000000 ) ) ;
#292 = DIRECTION ( 'NONE',  ( 0.0000000000000000000, 0.0000000000000000000, -1.000000000000000000 ) ) ;
#293 = ORIENTED_EDGE ( 'NONE', *, *, #214, .T. ) ;
#294 = PRESENTATION_STYLE_ASSIGNMENT (( #232 ) ) ;
#295 = FACE_OUTER_BOUND ( 'NONE', #318, .T. ) ;
#296 =( GEOMETRIC_REPRESENTATION_CONTEXT ( 3 ) GLOBAL_UNCERTAINTY_ASSIGNED_CONTEXT ( ( #325 ) ) GLOBAL_UNIT_ASSIGNED_CONTEXT ( ( #131, #138, #71 ) ) REPRESENTATION_CONTEXT ( 'NONE', 'WORKASPACE' ) );
#297 = EDGE_LOOP ( 'NONE', ( #346, #275, #19, #178 ) ) ;
#298 = CARTESIAN_POINT ( 'NONE',  ( 297.3109946138207000, 0.0000000000000000000, 4.969274113045846000E-023 ) ) ;
#299 = ADVANCED_BREP_SHAPE_REPRESENTATION ( '145201', ( #313, #68, #119 ), #296 ) ;
#300 = VECTOR ( 'NONE', #257, 1000.000000000000000 ) ;
#301 = DIRECTION ( 'NONE',  ( 0.0000000000000000000, -1.000000000000000000, -1.224646799147353200E-016 ) ) ;
#302 = COLOUR_RGB ( '',1.000000000000000000, 1.000000000000000000, 1.000000000000000000 ) ;
#303 = PRODUCT_DEFINITION_SHAPE ( 'NONE', 'NONE',  #127 ) ;
#304 = AXIS2_PLACEMENT_3D ( 'NONE', #148, #175, #229 ) ;
#305 = VERTEX_POINT ( 'NONE', #157 ) ;
#306 = ORIENTED_EDGE ( 'NONE', *, *, #261, .F. ) ;
#307 = DIRECTION ( 'NONE',  ( -0.0000000000000000000, -1.000000000000000000, -0.0000000000000000000 ) ) ;
#308 = EDGE_LOOP ( 'NONE', ( #185, #244, #110 ) ) ;
#309 = DIRECTION ( 'NONE',  ( 0.0000000000000000000, 0.0000000000000000000, 1.000000000000000000 ) ) ;
#310 = DIRECTION ( 'NONE',  ( 0.0000000000000000000, 0.0000000000000000000, 1.000000000000000000 ) ) ;
#311 =( NAMED_UNIT ( * ) SI_UNIT ( $, .STERADIAN. ) SOLID_ANGLE_UNIT ( ) );
#312 = DIRECTION ( 'NONE',  ( 0.0000000000000000000, 0.0000000000000000000, 1.000000000000000000 ) ) ;
#313 = MANIFOLD_SOLID_BREP ( 'Ðý×ª1', #63 ) ;
#314 = CARTESIAN_POINT ( 'NONE',  ( 264.0155162950707100, 0.0000000000000000000, 0.0000000000000000000 ) ) ;
#315 = CARTESIAN_POINT ( 'NONE',  ( 250.6338038906036400, 2.449293598294704500E-015, -19.99999999999998200 ) ) ;
#316 = ADVANCED_FACE ( 'NONE', ( #132 ), #266, .F. ) ;
#317 = EDGE_CURVE ( 'NONE', #225, #113, #3, .T. ) ;
#318 = EDGE_LOOP ( 'NONE', ( #181, #29, #207 ) ) ;
#319 = SURFACE_STYLE_USAGE ( .BOTH. , #72 ) ;
#320 = VECTOR ( 'NONE', #18, 1000.000000000000000 ) ;
#321 =( NAMED_UNIT ( * ) PLANE_ANGLE_UNIT ( ) SI_UNIT ( $, .RADIAN. ) );
#322 = VERTEX_POINT ( 'NONE', #234 ) ;
#323 = AXIS2_PLACEMENT_3D ( 'NONE', #38, #76, #292 ) ;
#324 = CLOSED_SHELL ( 'NONE', ( #316, #180, #334, #259, #83, #57 ) ) ;
#325 = UNCERTAINTY_MEASURE_WITH_UNIT (LENGTH_MEASURE( 1.000000000000000100E-005 ), #131, 'distance_accuracy_value', 'NONE');
#326 = EDGE_CURVE ( 'NONE', #99, #168, #87, .T. ) ;
#327 = CARTESIAN_POINT ( 'NONE',  ( 256.4109946138207800, 0.0000000000000000000, -2.504402654563593600E-015 ) ) ;
#328 =( NAMED_UNIT ( * ) PLANE_ANGLE_UNIT ( ) SI_UNIT ( $, .RADIAN. ) );
#329 = CARTESIAN_POINT ( 'NONE',  ( 254.4109946138207200, 0.0000000000000000000, -6.715718067469138300E-015 ) ) ;
#330 = AXIS2_PLACEMENT_3D ( 'NONE', #237, #170, #49 ) ;
#331 = CARTESIAN_POINT ( 'NONE',  ( -0.8160621761658039000, 0.0000000000000000000, 0.0000000000000000000 ) ) ;
#332 = EDGE_LOOP ( 'NONE', ( #224, #28, #264 ) ) ;
#333 = CARTESIAN_POINT ( 'NONE',  ( 297.3109946138207000, 0.0000000000000000000, 4.969274113045846000E-023 ) ) ;
#334 = ADVANCED_FACE ( 'NONE', ( #58 ), #263, .T. ) ;
#335 = DIRECTION ( 'NONE',  ( -1.000000000000000000, -0.0000000000000000000, 1.836970198721029700E-016 ) ) ;
#336 = LINE ( 'NONE', #255, #164 ) ;
#337 = DIRECTION ( 'NONE',  ( -0.0000000000000000000, -1.000000000000000000, -0.0000000000000000000 ) ) ;
#338 = DIRECTION ( 'NONE',  ( 0.0000000000000000000, -1.224646799147353200E-016, 1.000000000000000000 ) ) ;
#339 = DIRECTION ( 'NONE',  ( -1.000000000000000000, -0.0000000000000000000, -0.0000000000000000000 ) ) ;
#340 = MECHANICAL_DESIGN_GEOMETRIC_PRESENTATION_REPRESENTATION (  '', ( #176 ), #169 ) ;
#341 = CYLINDRICAL_SURFACE ( 'NONE', #249, 20.00000000000004600 ) ;
#342 = CARTESIAN_POINT ( 'NONE',  ( 264.0155162950707100, 0.0000000000000000000, 19.99999999999999600 ) ) ;
#343 = COLOUR_RGB ( '',1.000000000000000000, 1.000000000000000000, 1.000000000000000000 ) ;
#344 = FILL_AREA_STYLE_COLOUR ( '', #302 ) ;
#345 = DIRECTION ( 'NONE',  ( 0.0000000000000000000, 1.000000000000000000, -0.0000000000000000000 ) ) ;
#346 = ORIENTED_EDGE ( 'NONE', *, *, #122, .F. ) ;
#347 = FILL_AREA_STYLE ('',( #251 ) ) ;
ENDSEC;
END-ISO-10303-21;
