ISO-10303-21;
HEADER;
FILE_DESCRIPTION (( 'STEP AP214' ),
    '1' );
FILE_NAME ('145111.STEP',
    '2019-05-30T01:28:59',
    ( 'user' ),
    ( 'Î¢ÈíÖÐ¹ú' ),
    'SwSTEP 2.0',
    'SolidWorks 2016',
    '' );
FILE_SCHEMA (( 'AUTOMOTIVE_DESIGN' ));
ENDSEC;

DATA;
#1 = DIRECTION ( 'NONE',  ( 0.0000000000000000000, -1.000000000000000000, 0.0000000000000000000 ) ) ;
#2 = FILL_AREA_STYLE ('',( #297 ) ) ;
#3 = CARTESIAN_POINT ( 'NONE',  ( 293.2089566504702100, 0.0000000000000000000, -3.565417497892756000E-015 ) ) ;
#4 = PRODUCT_RELATED_PRODUCT_CATEGORY ( 'part', '', ( #294 ) ) ;
#5 = CARTESIAN_POINT ( 'NONE',  ( 260.7089566504702100, 0.0000000000000000000, -3.469446951953614200E-015 ) ) ;
#6 = ADVANCED_FACE ( 'NONE', ( #110 ), #252, .T. ) ;
#7 = ORIENTED_EDGE ( 'NONE', *, *, #65, .F. ) ;
#8 = SURFACE_STYLE_FILL_AREA ( #339 ) ;
#9 = AXIS2_PLACEMENT_3D ( 'NONE', #270, #86, #245 ) ;
#10 = DIRECTION ( 'NONE',  ( 0.0000000000000000000, -1.000000000000000000, 0.0000000000000000000 ) ) ;
#11 = EDGE_CURVE ( 'NONE', #243, #323, #42, .T. ) ;
#12 = ORIENTED_EDGE ( 'NONE', *, *, #11, .F. ) ;
#13 = EDGE_CURVE ( 'NONE', #308, #188, #324, .T. ) ;
#14 = VERTEX_POINT ( 'NONE', #215 ) ;
#15 = AXIS2_PLACEMENT_3D ( 'NONE', #263, #236, #22 ) ;
#16 = CARTESIAN_POINT ( 'NONE',  ( 0.0000000000000000000, 0.0000000000000000000, 0.0000000000000000000 ) ) ;
#17 = FACE_OUTER_BOUND ( 'NONE', #289, .T. ) ;
#18 = VERTEX_POINT ( 'NONE', #326 ) ;
#19 = DIRECTION ( 'NONE',  ( -0.0000000000000000000, 1.000000000000000000, 1.224646799147353200E-016 ) ) ;
#20 = ORIENTED_EDGE ( 'NONE', *, *, #162, .T. ) ;
#21 = DIRECTION ( 'NONE',  ( 0.0000000000000000000, 0.0000000000000000000, -1.000000000000000000 ) ) ;
#22 = DIRECTION ( 'NONE',  ( 0.0000000000000000000, 0.0000000000000000000, 1.000000000000000000 ) ) ;
#23 = CARTESIAN_POINT ( 'NONE',  ( 275.6125635964413600, 7.776507174585689200E-016, -6.349999999999996100 ) ) ;
#24 = DIRECTION ( 'NONE',  ( 0.0000000000000000000, 0.0000000000000000000, 1.000000000000000000 ) ) ;
#25 = AXIS2_PLACEMENT_3D ( 'NONE', #320, #285, #44 ) ;
#26 = DIRECTION ( 'NONE',  ( -1.000000000000000000, -0.0000000000000000000, -0.0000000000000000000 ) ) ;
#27 = CIRCLE ( 'NONE', #88, 79.09999999999996600 ) ;
#28 = VERTEX_POINT ( 'NONE', #55 ) ;
#29 = EDGE_CURVE ( 'NONE', #240, #178, #121, .T. ) ;
#30 = CARTESIAN_POINT ( 'NONE',  ( 278.1536616090151000, 0.0000000000000000000, 0.0000000000000000000 ) ) ;
#31 = EDGE_LOOP ( 'NONE', ( #256, #231, #174 ) ) ;
#32 = ADVANCED_FACE ( 'NONE', ( #126 ), #331, .T. ) ;
#33 = AXIS2_PLACEMENT_3D ( 'NONE', #322, #138, #292 ) ;
#34 = DIRECTION ( 'NONE',  ( -1.000000000000000000, -0.0000000000000000000, -0.0000000000000000000 ) ) ;
#35 = EDGE_LOOP ( 'NONE', ( #173, #219, #20, #253 ) ) ;
#36 = ORIENTED_EDGE ( 'NONE', *, *, #92, .T. ) ;
#37 =( GEOMETRIC_REPRESENTATION_CONTEXT ( 3 ) GLOBAL_UNCERTAINTY_ASSIGNED_CONTEXT ( ( #49 ) ) GLOBAL_UNIT_ASSIGNED_CONTEXT ( ( #141, #295, #111 ) ) REPRESENTATION_CONTEXT ( 'NONE', 'WORKASPACE' ) );
#38 = ORIENTED_EDGE ( 'NONE', *, *, #162, .F. ) ;
#39 = CIRCLE ( 'NONE', #80, 6.349999999999996100 ) ;
#40 = AXIS2_PLACEMENT_3D ( 'NONE', #118, #272, #193 ) ;
#41 = ORIENTED_EDGE ( 'NONE', *, *, #255, .T. ) ;
#42 = CIRCLE ( 'NONE', #194, 16.19999999999998500 ) ;
#43 = DIRECTION ( 'NONE',  ( 0.0000000000000000000, 0.0000000000000000000, 1.000000000000000000 ) ) ;
#44 = DIRECTION ( 'NONE',  ( 0.0000000000000000000, 0.0000000000000000000, 1.000000000000000000 ) ) ;
#45 = LINE ( 'NONE', #180, #328 ) ;
#46 =( NAMED_UNIT ( * ) SI_UNIT ( $, .STERADIAN. ) SOLID_ANGLE_UNIT ( ) );
#47 = CARTESIAN_POINT ( 'NONE',  ( -0.5519199926577972300, 0.0000000000000000000, 6.349999999999999600 ) ) ;
#48 = EDGE_CURVE ( 'NONE', #330, #343, #257, .T. ) ;
#49 = UNCERTAINTY_MEASURE_WITH_UNIT (LENGTH_MEASURE( 1.000000000000000100E-005 ), #141, 'distance_accuracy_value', 'NONE');
#50 = FILL_AREA_STYLE_COLOUR ( '', #198 ) ;
#51 = DIRECTION ( 'NONE',  ( -1.000000000000000000, -0.0000000000000000000, -0.0000000000000000000 ) ) ;
#52 = ORIENTED_EDGE ( 'NONE', *, *, #177, .F. ) ;
#53 = FACE_OUTER_BOUND ( 'NONE', #179, .T. ) ;
#54 = DIRECTION ( 'NONE',  ( 0.0000000000000000000, 1.000000000000000000, 0.0000000000000000000 ) ) ;
#55 = CARTESIAN_POINT ( 'NONE',  ( 274.4548237726216400, 0.0000000000000000000, 6.349999999999996100 ) ) ;
#56 = CARTESIAN_POINT ( 'NONE',  ( 276.9089566504702000, 0.0000000000000000000, -2.477483044644258900E-015 ) ) ;
#57 = LINE ( 'NONE', #190, #220 ) ;
#58 = COLOUR_RGB ( '',1.000000000000000000, 1.000000000000000000, 1.000000000000000000 ) ;
#59 = CARTESIAN_POINT ( 'NONE',  ( 293.2089566504702100, 0.0000000000000000000, -3.565417497892756000E-015 ) ) ;
#60 = ADVANCED_FACE ( 'NONE', ( #53 ), #310, .T. ) ;
#61 = DIRECTION ( 'NONE',  ( 0.0000000000000000000, 0.0000000000000000000, 1.000000000000000000 ) ) ;
#62 = ORIENTED_EDGE ( 'NONE', *, *, #276, .F. ) ;
#63 = LINE ( 'NONE', #47, #279 ) ;
#64 =( GEOMETRIC_REPRESENTATION_CONTEXT ( 3 ) GLOBAL_UNCERTAINTY_ASSIGNED_CONTEXT ( ( #75 ) ) GLOBAL_UNIT_ASSIGNED_CONTEXT ( ( #128, #284, #100 ) ) REPRESENTATION_CONTEXT ( 'NONE', 'WORKASPACE' ) );
#65 = EDGE_CURVE ( 'NONE', #14, #188, #201, .T. ) ;
#66 = MECHANICAL_DESIGN_GEOMETRIC_PRESENTATION_REPRESENTATION (  '', ( #151 ), #64 ) ;
#67 = ORIENTED_EDGE ( 'NONE', *, *, #105, .F. ) ;
#68 = CYLINDRICAL_SURFACE ( 'NONE', #337, 6.349999999999999600 ) ;
#69 = ORIENTED_EDGE ( 'NONE', *, *, #276, .T. ) ;
#70 = PRESENTATION_STYLE_ASSIGNMENT (( #315 ) ) ;
#71 = CIRCLE ( 'NONE', #271, 6.350000000000000500 ) ;
#72 = EDGE_CURVE ( 'NONE', #243, #18, #189, .T. ) ;
#73 = DIRECTION ( 'NONE',  ( -1.000000000000000000, -0.0000000000000000000, -0.0000000000000000000 ) ) ;
#74 =( LENGTH_UNIT ( ) NAMED_UNIT ( * ) SI_UNIT ( .MILLI., .METRE. ) );
#75 = UNCERTAINTY_MEASURE_WITH_UNIT (LENGTH_MEASURE( 1.000000000000000100E-005 ), #128, 'distance_accuracy_value', 'NONE');
#76 = EDGE_LOOP ( 'NONE', ( #277, #199, #36, #119 ) ) ;
#77 = CARTESIAN_POINT ( 'NONE',  ( 278.1536616090151000, 0.0000000000000000000, 6.350000000000000500 ) ) ;
#78 = CARTESIAN_POINT ( 'NONE',  ( 260.7089566504702100, 0.0000000000000000000, -3.469446951953614200E-015 ) ) ;
#79 = DIRECTION ( 'NONE',  ( -1.000000000000000000, -0.0000000000000000000, -0.0000000000000000000 ) ) ;
#80 = AXIS2_PLACEMENT_3D ( 'NONE', #148, #170, #61 ) ;
#81 = CARTESIAN_POINT ( 'NONE',  ( 124.5233095260452400, 7.776507174585689200E-016, -6.349999999999996100 ) ) ;
#82 = EDGE_CURVE ( 'NONE', #14, #308, #338, .T. ) ;
#83 = DIRECTION ( 'NONE',  ( -1.000000000000000000, -0.0000000000000000000, -0.0000000000000000000 ) ) ;
#84 = DIRECTION ( 'NONE',  ( -1.000000000000000000, -0.0000000000000000000, -0.0000000000000000000 ) ) ;
#85 = AXIS2_PLACEMENT_3D ( 'NONE', #234, #51, #213 ) ;
#86 = DIRECTION ( 'NONE',  ( -1.000000000000000000, -0.0000000000000000000, -0.0000000000000000000 ) ) ;
#87 = EDGE_LOOP ( 'NONE', ( #41, #336, #232, #312 ) ) ;
#88 = AXIS2_PLACEMENT_3D ( 'NONE', #342, #161, #21 ) ;
#89 = ADVANCED_FACE ( 'NONE', ( #266 ), #344, .T. ) ;
#90 = PRODUCT_DEFINITION_CONTEXT ( 'detailed design', #316, 'design' ) ;
#91 = FACE_OUTER_BOUND ( 'NONE', #226, .T. ) ;
#92 = EDGE_CURVE ( 'NONE', #343, #323, #63, .T. ) ;
#93 = EDGE_LOOP ( 'NONE', ( #62, #304, #251 ) ) ;
#94 = CLOSED_SHELL ( 'NONE', ( #144, #89, #117, #300, #247, #273 ) ) ;
#95 = ORIENTED_EDGE ( 'NONE', *, *, #176, .T. ) ;
#96 = EDGE_CURVE ( 'NONE', #323, #18, #137, .T. ) ;
#97 = VECTOR ( 'NONE', #346, 1000.000000000000000 ) ;
#98 = CLOSED_SHELL ( 'NONE', ( #60, #329, #218, #6, #32, #197 ) ) ;
#99 = ORIENTED_EDGE ( 'NONE', *, *, #255, .F. ) ;
#100 =( NAMED_UNIT ( * ) SI_UNIT ( $, .STERADIAN. ) SOLID_ANGLE_UNIT ( ) );
#101 = FILL_AREA_STYLE_COLOUR ( '', #282 ) ;
#102 = SURFACE_SIDE_STYLE ('',( #275 ) ) ;
#103 =( NAMED_UNIT ( * ) SI_UNIT ( $, .STERADIAN. ) SOLID_ANGLE_UNIT ( ) );
#104 = DIRECTION ( 'NONE',  ( 0.0000000000000000000, -1.000000000000000000, 0.0000000000000000000 ) ) ;
#105 = EDGE_CURVE ( 'NONE', #188, #308, #204, .T. ) ;
#106 = CARTESIAN_POINT ( 'NONE',  ( 278.1536616090151000, 7.776507174585694100E-016, -6.350000000000001400 ) ) ;
#107 = DIRECTION ( 'NONE',  ( -1.000000000000000000, -0.0000000000000000000, -0.0000000000000000000 ) ) ;
#108 = PRESENTATION_STYLE_ASSIGNMENT (( #261 ) ) ;
#109 = ORIENTED_EDGE ( 'NONE', *, *, #29, .F. ) ;
#110 = FACE_OUTER_BOUND ( 'NONE', #160, .T. ) ;
#111 =( NAMED_UNIT ( * ) SI_UNIT ( $, .STERADIAN. ) SOLID_ANGLE_UNIT ( ) );
#112 = DIRECTION ( 'NONE',  ( 0.0000000000000000000, 1.000000000000000000, 0.0000000000000000000 ) ) ;
#113 = CARTESIAN_POINT ( 'NONE',  ( 273.4089566504702000, 0.0000000000000000000, -2.353017166736876700E-015 ) ) ;
#114 = DIRECTION ( 'NONE',  ( 0.0000000000000000000, 1.000000000000000000, 0.0000000000000000000 ) ) ;
#115 = CIRCLE ( 'NONE', #202, 6.349999999999996100 ) ;
#116 = CARTESIAN_POINT ( 'NONE',  ( -0.5519199926577972300, 0.0000000000000000000, 0.0000000000000000000 ) ) ;
#117 = ADVANCED_FACE ( 'NONE', ( #214 ), #147, .F. ) ;
#118 = CARTESIAN_POINT ( 'NONE',  ( 293.2089566504702100, 0.0000000000000000000, -3.565417497892756000E-015 ) ) ;
#119 = ORIENTED_EDGE ( 'NONE', *, *, #249, .F. ) ;
#120 = AXIS2_PLACEMENT_3D ( 'NONE', #341, #233, #159 ) ;
#121 = CIRCLE ( 'NONE', #306, 19.79999999999999700 ) ;
#122 = FACE_OUTER_BOUND ( 'NONE', #93, .T. ) ;
#123 = SPHERICAL_SURFACE ( 'NONE', #175, 16.19999999999998500 ) ;
#124 = AXIS2_PLACEMENT_3D ( 'NONE', #319, #133, #287 ) ;
#125 = ORIENTED_EDGE ( 'NONE', *, *, #11, .T. ) ;
#126 = FACE_OUTER_BOUND ( 'NONE', #35, .T. ) ;
#127 = AXIS2_PLACEMENT_3D ( 'NONE', #139, #79, #24 ) ;
#128 =( LENGTH_UNIT ( ) NAMED_UNIT ( * ) SI_UNIT ( .MILLI., .METRE. ) );
#129 = APPLICATION_PROTOCOL_DEFINITION ( 'draft international standard', 'automotive_design', 1998, #316 ) ;
#130 = DIRECTION ( 'NONE',  ( 0.0000000000000000000, 0.0000000000000000000, 1.000000000000000000 ) ) ;
#131 = AXIS2_PLACEMENT_3D ( 'NONE', #3, #112, #241 ) ;
#132 = APPLICATION_CONTEXT ( 'automotive_design' ) ;
#133 = DIRECTION ( 'NONE',  ( -0.0000000000000000000, 1.000000000000000000, 1.224646799147353200E-016 ) ) ;
#134 =( NAMED_UNIT ( * ) PLANE_ANGLE_UNIT ( ) SI_UNIT ( $, .RADIAN. ) );
#135 = DIRECTION ( 'NONE',  ( -1.000000000000000000, -0.0000000000000000000, -0.0000000000000000000 ) ) ;
#136 = ORIENTED_EDGE ( 'NONE', *, *, #345, .F. ) ;
#137 = CIRCLE ( 'NONE', #140, 6.349999999999998800 ) ;
#138 = DIRECTION ( 'NONE',  ( -0.0000000000000000000, 1.000000000000000000, 1.224646799147353200E-016 ) ) ;
#139 = CARTESIAN_POINT ( 'NONE',  ( 124.5233095260452400, 0.0000000000000000000, 0.0000000000000000000 ) ) ;
#140 = AXIS2_PLACEMENT_3D ( 'NONE', #157, #317, #130 ) ;
#141 =( LENGTH_UNIT ( ) NAMED_UNIT ( * ) SI_UNIT ( .MILLI., .METRE. ) );
#142 = CIRCLE ( 'NONE', #9, 6.349999999999998800 ) ;
#143 = MANIFOLD_SOLID_BREP ( 'Ðý×ª1', #98 ) ;
#144 = ADVANCED_FACE ( 'NONE', ( #318 ), #246, .T. ) ;
#145 = EDGE_CURVE ( 'NONE', #240, #28, #115, .T. ) ;
#146 = ORIENTED_EDGE ( 'NONE', *, *, #311, .T. ) ;
#147 = SPHERICAL_SURFACE ( 'NONE', #25, 16.19999999999998500 ) ;
#148 = CARTESIAN_POINT ( 'NONE',  ( 274.4548237726216400, 0.0000000000000000000, 0.0000000000000000000 ) ) ;
#149 = AXIS2_PLACEMENT_3D ( 'NONE', #293, #107, #268 ) ;
#150 = VERTEX_POINT ( 'NONE', #206 ) ;
#151 = STYLED_ITEM ( 'NONE', ( #70 ), #143 ) ;
#152 = LINE ( 'NONE', #81, #97 ) ;
#153 = AXIS2_PLACEMENT_3D ( 'NONE', #290, #104, #262 ) ;
#154 = SURFACE_STYLE_FILL_AREA ( #2 ) ;
#155 = SURFACE_SIDE_STYLE ('',( #8 ) ) ;
#156 = PRODUCT_CONTEXT ( 'NONE', #132, 'mechanical' ) ;
#157 = CARTESIAN_POINT ( 'NONE',  ( 275.6125635964413600, 0.0000000000000000000, 0.0000000000000000000 ) ) ;
#158 = APPLICATION_PROTOCOL_DEFINITION ( 'draft international standard', 'automotive_design', 1998, #132 ) ;
#159 = DIRECTION ( 'NONE',  ( 0.0000000000000000000, 0.0000000000000000000, 1.000000000000000000 ) ) ;
#160 = EDGE_LOOP ( 'NONE', ( #109, #223, #95 ) ) ;
#161 = DIRECTION ( 'NONE',  ( 0.0000000000000000000, -1.000000000000000000, 0.0000000000000000000 ) ) ;
#162 = EDGE_CURVE ( 'NONE', #188, #28, #45, .T. ) ;
#163 = DIRECTION ( 'NONE',  ( 0.0000000000000000000, 0.0000000000000000000, 1.000000000000000000 ) ) ;
#164 = DIRECTION ( 'NONE',  ( 0.0000000000000000000, -1.224646799147353200E-016, 1.000000000000000000 ) ) ;
#165 = DIRECTION ( 'NONE',  ( 0.0000000000000000000, 0.0000000000000000000, -1.000000000000000000 ) ) ;
#166 = SURFACE_SIDE_STYLE ('',( #154 ) ) ;
#167 = ORIENTED_EDGE ( 'NONE', *, *, #105, .T. ) ;
#168 = AXIS2_PLACEMENT_3D ( 'NONE', #229, #181, #43 ) ;
#169 = ORIENTED_EDGE ( 'NONE', *, *, #82, .T. ) ;
#170 = DIRECTION ( 'NONE',  ( -1.000000000000000000, -0.0000000000000000000, -0.0000000000000000000 ) ) ;
#171 = SHAPE_DEFINITION_REPRESENTATION ( #238, #274 ) ;
#172 = AXIS2_PLACEMENT_3D ( 'NONE', #186, #135, #163 ) ;
#173 = ORIENTED_EDGE ( 'NONE', *, *, #311, .F. ) ;
#174 = ORIENTED_EDGE ( 'NONE', *, *, #176, .F. ) ;
#175 = AXIS2_PLACEMENT_3D ( 'NONE', #5, #250, #278 ) ;
#176 = EDGE_CURVE ( 'NONE', #28, #178, #183, .T. ) ;
#177 = EDGE_CURVE ( 'NONE', #28, #240, #39, .T. ) ;
#178 = VERTEX_POINT ( 'NONE', #113 ) ;
#179 = EDGE_LOOP ( 'NONE', ( #7, #169, #67 ) ) ;
#180 = CARTESIAN_POINT ( 'NONE',  ( 124.5233095260452400, 0.0000000000000000000, 6.349999999999996100 ) ) ;
#181 = DIRECTION ( 'NONE',  ( 0.0000000000000000000, 1.000000000000000000, 0.0000000000000000000 ) ) ;
#182 = DIRECTION ( 'NONE',  ( 0.0000000000000000000, 0.0000000000000000000, 1.000000000000000000 ) ) ;
#183 = CIRCLE ( 'NONE', #333, 19.79999999999999700 ) ;
#184 = DIRECTION ( 'NONE',  ( 0.0000000000000000000, -1.224646799147353200E-016, 1.000000000000000000 ) ) ;
#185 =( LENGTH_UNIT ( ) NAMED_UNIT ( * ) SI_UNIT ( .MILLI., .METRE. ) );
#186 = CARTESIAN_POINT ( 'NONE',  ( 124.5233095260452400, 0.0000000000000000000, 0.0000000000000000000 ) ) ;
#187 = CARTESIAN_POINT ( 'NONE',  ( 293.2089566504702100, 0.0000000000000000000, -3.565417497892756000E-015 ) ) ;
#188 = VERTEX_POINT ( 'NONE', #248 ) ;
#189 = CIRCLE ( 'NONE', #208, 16.19999999999998500 ) ;
#190 = CARTESIAN_POINT ( 'NONE',  ( -0.5519199926577972300, 7.776507174585692200E-016, -6.349999999999999600 ) ) ;
#191 = CARTESIAN_POINT ( 'NONE',  ( 260.7089566504702100, 0.0000000000000000000, -3.469446951953614200E-015 ) ) ;
#192 = DIRECTION ( 'NONE',  ( 0.0000000000000000000, 0.0000000000000000000, 1.000000000000000000 ) ) ;
#193 = DIRECTION ( 'NONE',  ( 0.0000000000000000000, 0.0000000000000000000, 1.000000000000000000 ) ) ;
#194 = AXIS2_PLACEMENT_3D ( 'NONE', #191, #1, #165 ) ;
#195 = FACE_OUTER_BOUND ( 'NONE', #76, .T. ) ;
#196 = CARTESIAN_POINT ( 'NONE',  ( 274.4548237726216400, 7.776507174585687200E-016, -6.349999999999999600 ) ) ;
#197 = ADVANCED_FACE ( 'NONE', ( #259 ), #123, .T. ) ;
#198 = COLOUR_RGB ( '',1.000000000000000000, 1.000000000000000000, 1.000000000000000000 ) ;
#199 = ORIENTED_EDGE ( 'NONE', *, *, #48, .T. ) ;
#200 = DIRECTION ( 'NONE',  ( 0.0000000000000000000, 0.0000000000000000000, -1.000000000000000000 ) ) ;
#201 = CIRCLE ( 'NONE', #153, 16.19999999999998500 ) ;
#202 = AXIS2_PLACEMENT_3D ( 'NONE', #244, #83, #269 ) ;
#203 = ORIENTED_EDGE ( 'NONE', *, *, #13, .F. ) ;
#204 = CIRCLE ( 'NONE', #309, 6.349999999999996100 ) ;
#205 = PRESENTATION_LAYER_ASSIGNMENT (  '', '', ( #288 ) ) ;
#206 = CARTESIAN_POINT ( 'NONE',  ( 278.4089566504701500, 0.0000000000000000000, 4.843478090627779400E-015 ) ) ;
#207 = SPHERICAL_SURFACE ( 'NONE', #283, 79.09999999999996600 ) ;
#208 = AXIS2_PLACEMENT_3D ( 'NONE', #210, #19, #184 ) ;
#209 = DIRECTION ( 'NONE',  ( -1.000000000000000000, -0.0000000000000000000, -0.0000000000000000000 ) ) ;
#210 = CARTESIAN_POINT ( 'NONE',  ( 260.7089566504702100, 0.0000000000000000000, -3.469446951953614200E-015 ) ) ;
#211 = UNCERTAINTY_MEASURE_WITH_UNIT (LENGTH_MEASURE( 1.000000000000000100E-005 ), #74, 'distance_accuracy_value', 'NONE');
#212 = ORIENTED_EDGE ( 'NONE', *, *, #72, .F. ) ;
#213 = DIRECTION ( 'NONE',  ( 0.0000000000000000000, 0.0000000000000000000, 1.000000000000000000 ) ) ;
#214 = FACE_OUTER_BOUND ( 'NONE', #298, .T. ) ;
#215 = CARTESIAN_POINT ( 'NONE',  ( 276.9089566504702000, 0.0000000000000000000, -2.477483044644258900E-015 ) ) ;
#216 = CARTESIAN_POINT ( 'NONE',  ( 199.3089566504702100, 0.0000000000000000000, 0.0000000000000000000 ) ) ;
#217 = DIRECTION ( 'NONE',  ( 0.0000000000000000000, 0.0000000000000000000, 1.000000000000000000 ) ) ;
#218 = ADVANCED_FACE ( 'NONE', ( #254 ), #334, .T. ) ;
#219 = ORIENTED_EDGE ( 'NONE', *, *, #13, .T. ) ;
#220 = VECTOR ( 'NONE', #26, 1000.000000000000000 ) ;
#221 = MECHANICAL_DESIGN_GEOMETRIC_PRESENTATION_REPRESENTATION (  '', ( #288 ), #242 ) ;
#222 = ORIENTED_EDGE ( 'NONE', *, *, #96, .T. ) ;
#223 = ORIENTED_EDGE ( 'NONE', *, *, #145, .T. ) ;
#224 = AXIS2_PLACEMENT_3D ( 'NONE', #78, #54, #235 ) ;
#225 = ORIENTED_EDGE ( 'NONE', *, *, #249, .T. ) ;
#226 = EDGE_LOOP ( 'NONE', ( #167, #146, #52, #38 ) ) ;
#227 = DIRECTION ( 'NONE',  ( 0.0000000000000000000, 0.0000000000000000000, 1.000000000000000000 ) ) ;
#228 =( NAMED_UNIT ( * ) PLANE_ANGLE_UNIT ( ) SI_UNIT ( $, .RADIAN. ) );
#229 = CARTESIAN_POINT ( 'NONE',  ( 199.3089566504702100, 0.0000000000000000000, 0.0000000000000000000 ) ) ;
#230 = PRESENTATION_LAYER_ASSIGNMENT (  '', '', ( #151 ) ) ;
#231 = ORIENTED_EDGE ( 'NONE', *, *, #29, .T. ) ;
#232 = ORIENTED_EDGE ( 'NONE', *, *, #96, .F. ) ;
#233 = DIRECTION ( 'NONE',  ( -1.000000000000000000, -0.0000000000000000000, -0.0000000000000000000 ) ) ;
#234 = CARTESIAN_POINT ( 'NONE',  ( 278.1536616090151000, 0.0000000000000000000, 0.0000000000000000000 ) ) ;
#235 = DIRECTION ( 'NONE',  ( 0.0000000000000000000, 0.0000000000000000000, 1.000000000000000000 ) ) ;
#236 = DIRECTION ( 'NONE',  ( 0.0000000000000000000, 1.000000000000000000, 0.0000000000000000000 ) ) ;
#237 = CYLINDRICAL_SURFACE ( 'NONE', #172, 6.349999999999996100 ) ;
#238 = PRODUCT_DEFINITION_SHAPE ( 'NONE', 'NONE',  #314 ) ;
#239 = DIRECTION ( 'NONE',  ( 0.0000000000000000000, 0.0000000000000000000, 1.000000000000000000 ) ) ;
#240 = VERTEX_POINT ( 'NONE', #196 ) ;
#241 = DIRECTION ( 'NONE',  ( 0.0000000000000000000, 0.0000000000000000000, 1.000000000000000000 ) ) ;
#242 =( GEOMETRIC_REPRESENTATION_CONTEXT ( 3 ) GLOBAL_UNCERTAINTY_ASSIGNED_CONTEXT ( ( #211 ) ) GLOBAL_UNIT_ASSIGNED_CONTEXT ( ( #74, #228, #46 ) ) REPRESENTATION_CONTEXT ( 'NONE', 'WORKASPACE' ) );
#243 = VERTEX_POINT ( 'NONE', #56 ) ;
#244 = CARTESIAN_POINT ( 'NONE',  ( 274.4548237726216400, 0.0000000000000000000, 0.0000000000000000000 ) ) ;
#245 = DIRECTION ( 'NONE',  ( 0.0000000000000000000, 0.0000000000000000000, 1.000000000000000000 ) ) ;
#246 = SPHERICAL_SURFACE ( 'NONE', #168, 79.09999999999996600 ) ;
#247 = ADVANCED_FACE ( 'NONE', ( #195 ), #68, .T. ) ;
#248 = CARTESIAN_POINT ( 'NONE',  ( 275.6125635964413600, 0.0000000000000000000, 6.349999999999996100 ) ) ;
#249 = EDGE_CURVE ( 'NONE', #18, #323, #142, .T. ) ;
#250 = DIRECTION ( 'NONE',  ( 0.0000000000000000000, 1.000000000000000000, 0.0000000000000000000 ) ) ;
#251 = ORIENTED_EDGE ( 'NONE', *, *, #48, .F. ) ;
#252 = SPHERICAL_SURFACE ( 'NONE', #131, 19.79999999999999700 ) ;
#253 = ORIENTED_EDGE ( 'NONE', *, *, #145, .F. ) ;
#254 = FACE_OUTER_BOUND ( 'NONE', #31, .T. ) ;
#255 = EDGE_CURVE ( 'NONE', #343, #330, #71, .T. ) ;
#256 = ORIENTED_EDGE ( 'NONE', *, *, #177, .T. ) ;
#257 = CIRCLE ( 'NONE', #85, 6.350000000000000500 ) ;
#258 = CARTESIAN_POINT ( 'NONE',  ( 275.6125635964413600, 0.0000000000000000000, 0.0000000000000000000 ) ) ;
#259 = FACE_OUTER_BOUND ( 'NONE', #265, .T. ) ;
#260 = MANIFOLD_SOLID_BREP ( 'Ðý×ª3', #94 ) ;
#261 = SURFACE_STYLE_USAGE ( .BOTH. , #102 ) ;
#262 = DIRECTION ( 'NONE',  ( 0.0000000000000000000, 0.0000000000000000000, -1.000000000000000000 ) ) ;
#263 = CARTESIAN_POINT ( 'NONE',  ( 260.7089566504702100, 0.0000000000000000000, -3.469446951953614200E-015 ) ) ;
#264 =( GEOMETRIC_REPRESENTATION_CONTEXT ( 3 ) GLOBAL_UNCERTAINTY_ASSIGNED_CONTEXT ( ( #335 ) ) GLOBAL_UNIT_ASSIGNED_CONTEXT ( ( #185, #134, #103 ) ) REPRESENTATION_CONTEXT ( 'NONE', 'WORKASPACE' ) );
#265 = EDGE_LOOP ( 'NONE', ( #303, #281, #203 ) ) ;
#266 = FACE_OUTER_BOUND ( 'NONE', #87, .T. ) ;
#267 = CARTESIAN_POINT ( 'NONE',  ( 275.6125635964413600, 0.0000000000000000000, 6.349999999999999600 ) ) ;
#268 = DIRECTION ( 'NONE',  ( 0.0000000000000000000, 0.0000000000000000000, 1.000000000000000000 ) ) ;
#269 = DIRECTION ( 'NONE',  ( 0.0000000000000000000, 0.0000000000000000000, 1.000000000000000000 ) ) ;
#270 = CARTESIAN_POINT ( 'NONE',  ( 275.6125635964413600, 0.0000000000000000000, 0.0000000000000000000 ) ) ;
#271 = AXIS2_PLACEMENT_3D ( 'NONE', #30, #84, #192 ) ;
#272 = DIRECTION ( 'NONE',  ( 0.0000000000000000000, 1.000000000000000000, 0.0000000000000000000 ) ) ;
#273 = ADVANCED_FACE ( 'NONE', ( #122 ), #207, .T. ) ;
#274 = ADVANCED_BREP_SHAPE_REPRESENTATION ( '145111', ( #143, #260, #296 ), #264 ) ;
#275 = SURFACE_STYLE_FILL_AREA ( #286 ) ;
#276 = EDGE_CURVE ( 'NONE', #150, #330, #307, .T. ) ;
#277 = ORIENTED_EDGE ( 'NONE', *, *, #291, .F. ) ;
#278 = DIRECTION ( 'NONE',  ( 0.0000000000000000000, 0.0000000000000000000, 1.000000000000000000 ) ) ;
#279 = VECTOR ( 'NONE', #209, 1000.000000000000000 ) ;
#280 = SPHERICAL_SURFACE ( 'NONE', #224, 16.19999999999998500 ) ;
#281 = ORIENTED_EDGE ( 'NONE', *, *, #65, .T. ) ;
#282 = COLOUR_RGB ( '',1.000000000000000000, 1.000000000000000000, 1.000000000000000000 ) ;
#283 = AXIS2_PLACEMENT_3D ( 'NONE', #216, #114, #239 ) ;
#284 =( NAMED_UNIT ( * ) PLANE_ANGLE_UNIT ( ) SI_UNIT ( $, .RADIAN. ) );
#285 = DIRECTION ( 'NONE',  ( 0.0000000000000000000, 1.000000000000000000, 0.0000000000000000000 ) ) ;
#286 = FILL_AREA_STYLE ('',( #50 ) ) ;
#287 = DIRECTION ( 'NONE',  ( 0.0000000000000000000, -1.224646799147353200E-016, 1.000000000000000000 ) ) ;
#288 = STYLED_ITEM ( 'NONE', ( #108 ), #274 ) ;
#289 = EDGE_LOOP ( 'NONE', ( #212, #125, #222 ) ) ;
#290 = CARTESIAN_POINT ( 'NONE',  ( 260.7089566504702100, 0.0000000000000000000, -3.469446951953614200E-015 ) ) ;
#291 = EDGE_CURVE ( 'NONE', #330, #18, #57, .T. ) ;
#292 = DIRECTION ( 'NONE',  ( 0.0000000000000000000, -1.224646799147353200E-016, 1.000000000000000000 ) ) ;
#293 = CARTESIAN_POINT ( 'NONE',  ( 275.6125635964413600, 0.0000000000000000000, 0.0000000000000000000 ) ) ;
#294 = PRODUCT ( '145111', '145111', '', ( #156 ) ) ;
#295 =( NAMED_UNIT ( * ) PLANE_ANGLE_UNIT ( ) SI_UNIT ( $, .RADIAN. ) );
#296 = AXIS2_PLACEMENT_3D ( 'NONE', #16, #182, #340 ) ;
#297 = FILL_AREA_STYLE_COLOUR ( '', #58 ) ;
#298 = EDGE_LOOP ( 'NONE', ( #12, #299, #225 ) ) ;
#299 = ORIENTED_EDGE ( 'NONE', *, *, #72, .T. ) ;
#300 = ADVANCED_FACE ( 'NONE', ( #17 ), #280, .F. ) ;
#301 = MECHANICAL_DESIGN_GEOMETRIC_PRESENTATION_REPRESENTATION (  '', ( #321 ), #37 ) ;
#302 = PRESENTATION_LAYER_ASSIGNMENT (  '', '', ( #321 ) ) ;
#303 = ORIENTED_EDGE ( 'NONE', *, *, #82, .F. ) ;
#304 = ORIENTED_EDGE ( 'NONE', *, *, #345, .T. ) ;
#305 = PRESENTATION_STYLE_ASSIGNMENT (( #325 ) ) ;
#306 = AXIS2_PLACEMENT_3D ( 'NONE', #187, #347, #164 ) ;
#307 = CIRCLE ( 'NONE', #33, 79.09999999999996600 ) ;
#308 = VERTEX_POINT ( 'NONE', #23 ) ;
#309 = AXIS2_PLACEMENT_3D ( 'NONE', #258, #73, #227 ) ;
#310 = SPHERICAL_SURFACE ( 'NONE', #15, 16.19999999999998500 ) ;
#311 = EDGE_CURVE ( 'NONE', #308, #240, #152, .T. ) ;
#312 = ORIENTED_EDGE ( 'NONE', *, *, #92, .F. ) ;
#313 = EDGE_LOOP ( 'NONE', ( #136, #69, #99 ) ) ;
#314 = PRODUCT_DEFINITION ( 'Î´Öª', '', #332, #90 ) ;
#315 = SURFACE_STYLE_USAGE ( .BOTH. , #155 ) ;
#316 = APPLICATION_CONTEXT ( 'automotive_design' ) ;
#317 = DIRECTION ( 'NONE',  ( -1.000000000000000000, -0.0000000000000000000, -0.0000000000000000000 ) ) ;
#318 = FACE_OUTER_BOUND ( 'NONE', #313, .T. ) ;
#319 = CARTESIAN_POINT ( 'NONE',  ( 260.7089566504702100, 0.0000000000000000000, -3.469446951953614200E-015 ) ) ;
#320 = CARTESIAN_POINT ( 'NONE',  ( 260.7089566504702100, 0.0000000000000000000, -3.469446951953614200E-015 ) ) ;
#321 = STYLED_ITEM ( 'NONE', ( #305 ), #260 ) ;
#322 = CARTESIAN_POINT ( 'NONE',  ( 199.3089566504702100, 0.0000000000000000000, 0.0000000000000000000 ) ) ;
#323 = VERTEX_POINT ( 'NONE', #267 ) ;
#324 = CIRCLE ( 'NONE', #149, 6.349999999999996100 ) ;
#325 = SURFACE_STYLE_USAGE ( .BOTH. , #166 ) ;
#326 = CARTESIAN_POINT ( 'NONE',  ( 275.6125635964413600, 7.776507174585692200E-016, -6.350000000000003200 ) ) ;
#327 = DIRECTION ( 'NONE',  ( -1.000000000000000000, -0.0000000000000000000, -0.0000000000000000000 ) ) ;
#328 = VECTOR ( 'NONE', #327, 1000.000000000000000 ) ;
#329 = ADVANCED_FACE ( 'NONE', ( #91 ), #237, .T. ) ;
#330 = VERTEX_POINT ( 'NONE', #106 ) ;
#331 = CYLINDRICAL_SURFACE ( 'NONE', #127, 6.349999999999996100 ) ;
#332 = PRODUCT_DEFINITION_FORMATION_WITH_SPECIFIED_SOURCE ( 'ÈÎºÎ', '', #294, .NOT_KNOWN. ) ;
#333 = AXIS2_PLACEMENT_3D ( 'NONE', #59, #10, #200 ) ;
#334 = SPHERICAL_SURFACE ( 'NONE', #40, 19.79999999999999700 ) ;
#335 = UNCERTAINTY_MEASURE_WITH_UNIT (LENGTH_MEASURE( 1.000000000000000100E-005 ), #185, 'distance_accuracy_value', 'NONE');
#336 = ORIENTED_EDGE ( 'NONE', *, *, #291, .T. ) ;
#337 = AXIS2_PLACEMENT_3D ( 'NONE', #116, #34, #217 ) ;
#338 = CIRCLE ( 'NONE', #124, 16.19999999999998500 ) ;
#339 = FILL_AREA_STYLE ('',( #101 ) ) ;
#340 = DIRECTION ( 'NONE',  ( 1.000000000000000000, 0.0000000000000000000, 0.0000000000000000000 ) ) ;
#341 = CARTESIAN_POINT ( 'NONE',  ( -0.5519199926577972300, 0.0000000000000000000, 0.0000000000000000000 ) ) ;
#342 = CARTESIAN_POINT ( 'NONE',  ( 199.3089566504702100, 0.0000000000000000000, 0.0000000000000000000 ) ) ;
#343 = VERTEX_POINT ( 'NONE', #77 ) ;
#344 = CYLINDRICAL_SURFACE ( 'NONE', #120, 6.349999999999999600 ) ;
#345 = EDGE_CURVE ( 'NONE', #150, #343, #27, .T. ) ;
#346 = DIRECTION ( 'NONE',  ( -1.000000000000000000, -0.0000000000000000000, -0.0000000000000000000 ) ) ;
#347 = DIRECTION ( 'NONE',  ( -0.0000000000000000000, 1.000000000000000000, 1.224646799147353200E-016 ) ) ;
ENDSEC;
END-ISO-10303-21;
