ISO-10303-21;
HEADER;
FILE_DESCRIPTION (( 'STEP AP214' ),
    '1' );
FILE_NAME ('145107.STEP',
    '2019-05-29T06:30:00',
    ( 'user' ),
    ( 'Î¢ÈíÖÐ¹ú' ),
    'SwSTEP 2.0',
    'SolidWorks 2016',
    '' );
FILE_SCHEMA (( 'AUTOMOTIVE_DESIGN' ));
ENDSEC;

DATA;
#1 = VERTEX_POINT ( 'NONE', #213 ) ;
#2 = PRODUCT ( '145107', '145107', '', ( #280 ) ) ;
#3 = PRESENTATION_LAYER_ASSIGNMENT (  '', '', ( #40 ) ) ;
#4 = AXIS2_PLACEMENT_3D ( 'NONE', #7, #162, #329 ) ;
#5 = DIRECTION ( 'NONE',  ( -1.000000000000000000, -0.0000000000000000000, -0.0000000000000000000 ) ) ;
#6 = CIRCLE ( 'NONE', #259, 4.000000000000000000 ) ;
#7 = CARTESIAN_POINT ( 'NONE',  ( 267.3789089856075500, 0.0000000000000000000, 0.0000000000000000000 ) ) ;
#8 = LINE ( 'NONE', #219, #344 ) ;
#9 = DIRECTION ( 'NONE',  ( 0.0000000000000000000, 0.0000000000000000000, 1.000000000000000000 ) ) ;
#10 = AXIS2_PLACEMENT_3D ( 'NONE', #333, #166, #121 ) ;
#11 = ADVANCED_BREP_SHAPE_REPRESENTATION ( '145107', ( #130, #282, #272 ), #336 ) ;
#12 = CIRCLE ( 'NONE', #160, 3.999999999999998200 ) ;
#13 = EDGE_LOOP ( 'NONE', ( #330, #119, #218, #116 ) ) ;
#14 = DIRECTION ( 'NONE',  ( 0.0000000000000000000, 0.0000000000000000000, 1.000000000000000000 ) ) ;
#15 = CIRCLE ( 'NONE', #300, 8.599999999999985400 ) ;
#16 = EDGE_CURVE ( 'NONE', #255, #165, #15, .T. ) ;
#17 = AXIS2_PLACEMENT_3D ( 'NONE', #210, #113, #140 ) ;
#18 = CARTESIAN_POINT ( 'NONE',  ( 267.3789089856075500, 0.0000000000000000000, 3.999999999999998200 ) ) ;
#19 = CARTESIAN_POINT ( 'NONE',  ( 257.5030744908272600, 0.0000000000000000000, -2.901324745673849200E-016 ) ) ;
#20 = SPHERICAL_SURFACE ( 'NONE', #276, 8.599999999999987200 ) ;
#21 = CARTESIAN_POINT ( 'NONE',  ( 265.1162210150969800, 0.0000000000000000000, 0.0000000000000000000 ) ) ;
#22 = PRODUCT_DEFINITION_FORMATION_WITH_SPECIFIED_SOURCE ( 'ÈÎºÎ', '', #2, .NOT_KNOWN. ) ;
#23 = FILL_AREA_STYLE ('',( #183 ) ) ;
#24 = STYLED_ITEM ( 'NONE', ( #50 ), #130 ) ;
#25 = PRODUCT_DEFINITION_CONTEXT ( 'detailed design', #223, 'design' ) ;
#26 = AXIS2_PLACEMENT_3D ( 'NONE', #295, #105, #14 ) ;
#27 = CLOSED_SHELL ( 'NONE', ( #237, #111, #31, #241, #268, #294 ) ) ;
#28 = DIRECTION ( 'NONE',  ( 0.0000000000000000000, 0.0000000000000000000, 1.000000000000000000 ) ) ;
#29 = CLOSED_SHELL ( 'NONE', ( #247, #155, #53, #332, #135, #296 ) ) ;
#30 = DIRECTION ( 'NONE',  ( -1.000000000000000000, -0.0000000000000000000, -0.0000000000000000000 ) ) ;
#31 = ADVANCED_FACE ( 'NONE', ( #339 ), #203, .F. ) ;
#32 = DIRECTION ( 'NONE',  ( 0.0000000000000000000, 0.0000000000000000000, 1.000000000000000000 ) ) ;
#33 =( NAMED_UNIT ( * ) PLANE_ANGLE_UNIT ( ) SI_UNIT ( $, .RADIAN. ) );
#34 = PRESENTATION_LAYER_ASSIGNMENT (  '', '', ( #292 ) ) ;
#35 = UNCERTAINTY_MEASURE_WITH_UNIT (LENGTH_MEASURE( 1.000000000000000100E-005 ), #314, 'distance_accuracy_value', 'NONE');
#36 = CARTESIAN_POINT ( 'NONE',  ( 264.3561237248676400, 0.0000000000000000000, 0.0000000000000000000 ) ) ;
#37 = EDGE_LOOP ( 'NONE', ( #303, #173, #73 ) ) ;
#38 = CARTESIAN_POINT ( 'NONE',  ( 257.5030744908272600, 0.0000000000000000000, -2.901324745673849200E-016 ) ) ;
#39 = EDGE_LOOP ( 'NONE', ( #85, #290, #177 ) ) ;
#40 = STYLED_ITEM ( 'NONE', ( #142 ), #11 ) ;
#41 = ORIENTED_EDGE ( 'NONE', *, *, #145, .F. ) ;
#42 = AXIS2_PLACEMENT_3D ( 'NONE', #159, #328, #137 ) ;
#43 = CARTESIAN_POINT ( 'NONE',  ( 257.5030744908272600, 0.0000000000000000000, -2.901324745673849200E-016 ) ) ;
#44 = ORIENTED_EDGE ( 'NONE', *, *, #252, .T. ) ;
#45 = EDGE_CURVE ( 'NONE', #1, #235, #178, .T. ) ;
#46 = CARTESIAN_POINT ( 'NONE',  ( 231.8030744908272700, 0.0000000000000000000, 0.0000000000000000000 ) ) ;
#47 = ORIENTED_EDGE ( 'NONE', *, *, #16, .T. ) ;
#48 = SHAPE_DEFINITION_REPRESENTATION ( #81, #11 ) ;
#49 = FACE_OUTER_BOUND ( 'NONE', #96, .T. ) ;
#50 = PRESENTATION_STYLE_ASSIGNMENT (( #59 ) ) ;
#51 = ORIENTED_EDGE ( 'NONE', *, *, #66, .F. ) ;
#52 = FACE_OUTER_BOUND ( 'NONE', #92, .T. ) ;
#53 = ADVANCED_FACE ( 'NONE', ( #64 ), #288, .T. ) ;
#54 = ORIENTED_EDGE ( 'NONE', *, *, #244, .F. ) ;
#55 = MECHANICAL_DESIGN_GEOMETRIC_PRESENTATION_REPRESENTATION (  '', ( #40 ), #196 ) ;
#56 = FACE_OUTER_BOUND ( 'NONE', #76, .T. ) ;
#57 = CARTESIAN_POINT ( 'NONE',  ( 265.1162210150969800, 0.0000000000000000000, 3.999999999999996400 ) ) ;
#58 = CARTESIAN_POINT ( 'NONE',  ( 265.1162210150969800, 0.0000000000000000000, 0.0000000000000000000 ) ) ;
#59 = SURFACE_STYLE_USAGE ( .BOTH. , #243 ) ;
#60 = DIRECTION ( 'NONE',  ( 0.0000000000000000000, -1.224646799147353200E-016, 1.000000000000000000 ) ) ;
#61 = DIRECTION ( 'NONE',  ( -1.000000000000000000, -0.0000000000000000000, -0.0000000000000000000 ) ) ;
#62 = AXIS2_PLACEMENT_3D ( 'NONE', #211, #115, #163 ) ;
#63 = CARTESIAN_POINT ( 'NONE',  ( 257.5030744908272600, 0.0000000000000000000, -2.901324745673849200E-016 ) ) ;
#64 = FACE_OUTER_BOUND ( 'NONE', #37, .T. ) ;
#65 = DIRECTION ( 'NONE',  ( 0.0000000000000000000, 0.0000000000000000000, 1.000000000000000000 ) ) ;
#66 = EDGE_CURVE ( 'NONE', #321, #154, #191, .T. ) ;
#67 = CARTESIAN_POINT ( 'NONE',  ( -0.5519199926577972300, 0.0000000000000000000, 0.0000000000000000000 ) ) ;
#68 = DIRECTION ( 'NONE',  ( 0.0000000000000000000, 0.0000000000000000000, 1.000000000000000000 ) ) ;
#69 = DIRECTION ( 'NONE',  ( 0.0000000000000000000, 1.000000000000000000, 0.0000000000000000000 ) ) ;
#70 = DIRECTION ( 'NONE',  ( 0.0000000000000000000, -1.000000000000000000, 0.0000000000000000000 ) ) ;
#71 = UNCERTAINTY_MEASURE_WITH_UNIT (LENGTH_MEASURE( 1.000000000000000100E-005 ), #79, 'distance_accuracy_value', 'NONE');
#72 = VECTOR ( 'NONE', #124, 1000.000000000000000 ) ;
#73 = ORIENTED_EDGE ( 'NONE', *, *, #192, .F. ) ;
#74 = DIRECTION ( 'NONE',  ( 0.0000000000000000000, 0.0000000000000000000, 1.000000000000000000 ) ) ;
#75 = VECTOR ( 'NONE', #217, 1000.000000000000000 ) ;
#76 = EDGE_LOOP ( 'NONE', ( #54, #257, #246, #305 ) ) ;
#77 = DIRECTION ( 'NONE',  ( 0.0000000000000000000, 1.000000000000000000, 0.0000000000000000000 ) ) ;
#78 = CARTESIAN_POINT ( 'NONE',  ( 265.1162210150969800, 4.898587196589412800E-016, -4.000000000000000000 ) ) ;
#79 =( LENGTH_UNIT ( ) NAMED_UNIT ( * ) SI_UNIT ( .MILLI., .METRE. ) );
#80 = ORIENTED_EDGE ( 'NONE', *, *, #97, .F. ) ;
#81 = PRODUCT_DEFINITION_SHAPE ( 'NONE', 'NONE',  #233 ) ;
#82 = FILL_AREA_STYLE ('',( #84 ) ) ;
#83 = CARTESIAN_POINT ( 'NONE',  ( 231.8030744908272700, 0.0000000000000000000, 0.0000000000000000000 ) ) ;
#84 = FILL_AREA_STYLE_COLOUR ( '', #343 ) ;
#85 = ORIENTED_EDGE ( 'NONE', *, *, #16, .F. ) ;
#86 = DIRECTION ( 'NONE',  ( 0.0000000000000000000, 0.0000000000000000000, 1.000000000000000000 ) ) ;
#87 = VERTEX_POINT ( 'NONE', #271 ) ;
#88 = DIRECTION ( 'NONE',  ( 0.0000000000000000000, 0.0000000000000000000, -1.000000000000000000 ) ) ;
#89 =( GEOMETRIC_REPRESENTATION_CONTEXT ( 3 ) GLOBAL_UNCERTAINTY_ASSIGNED_CONTEXT ( ( #323 ) ) GLOBAL_UNIT_ASSIGNED_CONTEXT ( ( #208, #33, #186 ) ) REPRESENTATION_CONTEXT ( 'NONE', 'WORKASPACE' ) );
#90 = DIRECTION ( 'NONE',  ( 0.0000000000000000000, 0.0000000000000000000, 1.000000000000000000 ) ) ;
#91 = DIRECTION ( 'NONE',  ( 0.0000000000000000000, 0.0000000000000000000, 1.000000000000000000 ) ) ;
#92 = EDGE_LOOP ( 'NONE', ( #51, #114, #80 ) ) ;
#93 = AXIS2_PLACEMENT_3D ( 'NONE', #193, #216, #286 ) ;
#94 =( NAMED_UNIT ( * ) PLANE_ANGLE_UNIT ( ) SI_UNIT ( $, .RADIAN. ) );
#95 = EDGE_LOOP ( 'NONE', ( #202, #175, #302, #326 ) ) ;
#96 = EDGE_LOOP ( 'NONE', ( #143, #47, #313 ) ) ;
#97 = EDGE_CURVE ( 'NONE', #154, #251, #185, .T. ) ;
#98 = SURFACE_SIDE_STYLE ('',( #197 ) ) ;
#99 = ORIENTED_EDGE ( 'NONE', *, *, #192, .T. ) ;
#100 = DIRECTION ( 'NONE',  ( -0.0000000000000000000, 1.000000000000000000, 1.224646799147353200E-016 ) ) ;
#101 = ORIENTED_EDGE ( 'NONE', *, *, #252, .F. ) ;
#102 = CARTESIAN_POINT ( 'NONE',  ( 274.6030744908272800, 0.0000000000000000000, -1.138520487315141500E-017 ) ) ;
#103 =( NAMED_UNIT ( * ) SI_UNIT ( $, .STERADIAN. ) SOLID_ANGLE_UNIT ( ) );
#104 = CIRCLE ( 'NONE', #278, 8.599999999999985400 ) ;
#105 = DIRECTION ( 'NONE',  ( -1.000000000000000000, -0.0000000000000000000, -0.0000000000000000000 ) ) ;
#106 =( NAMED_UNIT ( * ) SI_UNIT ( $, .STERADIAN. ) SOLID_ANGLE_UNIT ( ) );
#107 = ORIENTED_EDGE ( 'NONE', *, *, #220, .F. ) ;
#108 = DIRECTION ( 'NONE',  ( 0.0000000000000000000, 0.0000000000000000000, 1.000000000000000000 ) ) ;
#109 = AXIS2_PLACEMENT_3D ( 'NONE', #38, #164, #301 ) ;
#110 = CIRCLE ( 'NONE', #26, 3.999999999999998200 ) ;
#111 = ADVANCED_FACE ( 'NONE', ( #264 ), #327, .T. ) ;
#112 = CARTESIAN_POINT ( 'NONE',  ( 257.5030744908272600, 0.0000000000000000000, -2.901324745673849200E-016 ) ) ;
#113 = DIRECTION ( 'NONE',  ( -1.000000000000000000, -0.0000000000000000000, -0.0000000000000000000 ) ) ;
#114 = ORIENTED_EDGE ( 'NONE', *, *, #220, .T. ) ;
#115 = DIRECTION ( 'NONE',  ( 0.0000000000000000000, 1.000000000000000000, 0.0000000000000000000 ) ) ;
#116 = ORIENTED_EDGE ( 'NONE', *, *, #156, .F. ) ;
#117 = DIRECTION ( 'NONE',  ( -1.000000000000000000, -0.0000000000000000000, -0.0000000000000000000 ) ) ;
#118 = FACE_OUTER_BOUND ( 'NONE', #132, .T. ) ;
#119 = ORIENTED_EDGE ( 'NONE', *, *, #289, .T. ) ;
#120 = EDGE_LOOP ( 'NONE', ( #101, #153, #41 ) ) ;
#121 = DIRECTION ( 'NONE',  ( 0.0000000000000000000, 0.0000000000000000000, -1.000000000000000000 ) ) ;
#122 = FACE_OUTER_BOUND ( 'NONE', #120, .T. ) ;
#123 = APPLICATION_PROTOCOL_DEFINITION ( 'draft international standard', 'automotive_design', 1998, #274 ) ;
#124 = DIRECTION ( 'NONE',  ( -1.000000000000000000, -0.0000000000000000000, -0.0000000000000000000 ) ) ;
#125 = DIRECTION ( 'NONE',  ( 0.0000000000000000000, -1.224646799147353200E-016, 1.000000000000000000 ) ) ;
#126 = SPHERICAL_SURFACE ( 'NONE', #316, 11.00000000000000700 ) ;
#127 = SURFACE_STYLE_USAGE ( .BOTH. , #254 ) ;
#128 = SURFACE_STYLE_FILL_AREA ( #307 ) ;
#129 = AXIS2_PLACEMENT_3D ( 'NONE', #63, #148, #171 ) ;
#130 = MANIFOLD_SOLID_BREP ( 'Ðý×ª1', #29 ) ;
#131 = LINE ( 'NONE', #136, #75 ) ;
#132 = EDGE_LOOP ( 'NONE', ( #225, #180, #190, #198 ) ) ;
#133 = COLOUR_RGB ( '',1.000000000000000000, 1.000000000000000000, 1.000000000000000000 ) ;
#134 = CARTESIAN_POINT ( 'NONE',  ( 274.6030744908272800, 0.0000000000000000000, -1.138520487315141500E-017 ) ) ;
#135 = ADVANCED_FACE ( 'NONE', ( #56 ), #320, .T. ) ;
#136 = CARTESIAN_POINT ( 'NONE',  ( 124.5233095260452400, 0.0000000000000000000, 4.000000000000000000 ) ) ;
#137 = DIRECTION ( 'NONE',  ( 0.0000000000000000000, 0.0000000000000000000, 1.000000000000000000 ) ) ;
#138 = CARTESIAN_POINT ( 'NONE',  ( 267.3789089856075500, 4.898587196589410900E-016, -3.999999999999998200 ) ) ;
#139 = EDGE_CURVE ( 'NONE', #248, #158, #6, .T. ) ;
#140 = DIRECTION ( 'NONE',  ( 0.0000000000000000000, 0.0000000000000000000, 1.000000000000000000 ) ) ;
#141 = DIRECTION ( 'NONE',  ( 0.0000000000000000000, 0.0000000000000000000, -1.000000000000000000 ) ) ;
#142 = PRESENTATION_STYLE_ASSIGNMENT (( #234 ) ) ;
#143 = ORIENTED_EDGE ( 'NONE', *, *, #230, .F. ) ;
#144 =( LENGTH_UNIT ( ) NAMED_UNIT ( * ) SI_UNIT ( .MILLI., .METRE. ) );
#145 = EDGE_CURVE ( 'NONE', #158, #248, #199, .T. ) ;
#146 = MECHANICAL_DESIGN_GEOMETRIC_PRESENTATION_REPRESENTATION (  '', ( #292 ), #184 ) ;
#147 = FILL_AREA_STYLE_COLOUR ( '', #238 ) ;
#148 = DIRECTION ( 'NONE',  ( -0.0000000000000000000, 1.000000000000000000, 1.224646799147353200E-016 ) ) ;
#149 =( NAMED_UNIT ( * ) PLANE_ANGLE_UNIT ( ) SI_UNIT ( $, .RADIAN. ) );
#150 = CARTESIAN_POINT ( 'NONE',  ( 257.5030744908272600, 0.0000000000000000000, -2.901324745673849200E-016 ) ) ;
#151 = CYLINDRICAL_SURFACE ( 'NONE', #263, 3.999999999999998200 ) ;
#152 = VERTEX_POINT ( 'NONE', #242 ) ;
#153 = ORIENTED_EDGE ( 'NONE', *, *, #345, .T. ) ;
#154 = VERTEX_POINT ( 'NONE', #138 ) ;
#155 = ADVANCED_FACE ( 'NONE', ( #269 ), #261, .T. ) ;
#156 = EDGE_CURVE ( 'NONE', #251, #165, #209, .T. ) ;
#157 = SPHERICAL_SURFACE ( 'NONE', #334, 8.599999999999987200 ) ;
#158 = VERTEX_POINT ( 'NONE', #78 ) ;
#159 = CARTESIAN_POINT ( 'NONE',  ( 265.1162210150969800, 0.0000000000000000000, 0.0000000000000000000 ) ) ;
#160 = AXIS2_PLACEMENT_3D ( 'NONE', #21, #195, #341 ) ;
#161 = CARTESIAN_POINT ( 'NONE',  ( 124.5233095260452400, 0.0000000000000000000, 0.0000000000000000000 ) ) ;
#162 = DIRECTION ( 'NONE',  ( -1.000000000000000000, -0.0000000000000000000, -0.0000000000000000000 ) ) ;
#163 = DIRECTION ( 'NONE',  ( 0.0000000000000000000, 0.0000000000000000000, 1.000000000000000000 ) ) ;
#164 = DIRECTION ( 'NONE',  ( 0.0000000000000000000, 1.000000000000000000, 0.0000000000000000000 ) ) ;
#165 = VERTEX_POINT ( 'NONE', #57 ) ;
#166 = DIRECTION ( 'NONE',  ( 0.0000000000000000000, -1.000000000000000000, 0.0000000000000000000 ) ) ;
#167 = CIRCLE ( 'NONE', #129, 8.599999999999987200 ) ;
#168 = EDGE_LOOP ( 'NONE', ( #107, #239, #231 ) ) ;
#169 = CARTESIAN_POINT ( 'NONE',  ( 267.6030744908272800, 0.0000000000000000000, 2.192117770473762100E-015 ) ) ;
#170 = EDGE_CURVE ( 'NONE', #251, #154, #110, .T. ) ;
#171 = DIRECTION ( 'NONE',  ( 0.0000000000000000000, -1.224646799147353500E-016, 1.000000000000000000 ) ) ;
#172 = DIRECTION ( 'NONE',  ( 0.0000000000000000000, 1.000000000000000000, 0.0000000000000000000 ) ) ;
#173 = ORIENTED_EDGE ( 'NONE', *, *, #346, .T. ) ;
#174 = DIRECTION ( 'NONE',  ( 0.0000000000000000000, 1.000000000000000000, 0.0000000000000000000 ) ) ;
#175 = ORIENTED_EDGE ( 'NONE', *, *, #244, .T. ) ;
#176 = PRESENTATION_STYLE_ASSIGNMENT (( #127 ) ) ;
#177 = ORIENTED_EDGE ( 'NONE', *, *, #306, .T. ) ;
#178 = CIRCLE ( 'NONE', #315, 4.000000000000000000 ) ;
#179 = AXIS2_PLACEMENT_3D ( 'NONE', #297, #5, #108 ) ;
#180 = ORIENTED_EDGE ( 'NONE', *, *, #97, .T. ) ;
#181 =( NAMED_UNIT ( * ) PLANE_ANGLE_UNIT ( ) SI_UNIT ( $, .RADIAN. ) );
#182 = ORIENTED_EDGE ( 'NONE', *, *, #281, .T. ) ;
#183 = FILL_AREA_STYLE_COLOUR ( '', #133 ) ;
#184 =( GEOMETRIC_REPRESENTATION_CONTEXT ( 3 ) GLOBAL_UNCERTAINTY_ASSIGNED_CONTEXT ( ( #256 ) ) GLOBAL_UNIT_ASSIGNED_CONTEXT ( ( #144, #94, #277 ) ) REPRESENTATION_CONTEXT ( 'NONE', 'WORKASPACE' ) );
#185 = CIRCLE ( 'NONE', #4, 3.999999999999998200 ) ;
#186 =( NAMED_UNIT ( * ) SI_UNIT ( $, .STERADIAN. ) SOLID_ANGLE_UNIT ( ) );
#187 = DIRECTION ( 'NONE',  ( -1.000000000000000000, -0.0000000000000000000, -0.0000000000000000000 ) ) ;
#188 = CARTESIAN_POINT ( 'NONE',  ( 257.5030744908272600, 0.0000000000000000000, -2.901324745673849200E-016 ) ) ;
#189 = CIRCLE ( 'NONE', #93, 4.000000000000000000 ) ;
#190 = ORIENTED_EDGE ( 'NONE', *, *, #156, .T. ) ;
#191 = CIRCLE ( 'NONE', #318, 35.79999999999999700 ) ;
#192 = EDGE_CURVE ( 'NONE', #1, #262, #325, .T. ) ;
#193 = CARTESIAN_POINT ( 'NONE',  ( 264.3561237248676400, 0.0000000000000000000, 0.0000000000000000000 ) ) ;
#194 = CARTESIAN_POINT ( 'NONE',  ( 0.0000000000000000000, 0.0000000000000000000, 0.0000000000000000000 ) ) ;
#195 = DIRECTION ( 'NONE',  ( -1.000000000000000000, -0.0000000000000000000, -0.0000000000000000000 ) ) ;
#196 =( GEOMETRIC_REPRESENTATION_CONTEXT ( 3 ) GLOBAL_UNCERTAINTY_ASSIGNED_CONTEXT ( ( #35 ) ) GLOBAL_UNIT_ASSIGNED_CONTEXT ( ( #314, #181, #103 ) ) REPRESENTATION_CONTEXT ( 'NONE', 'WORKASPACE' ) );
#197 = SURFACE_STYLE_FILL_AREA ( #23 ) ;
#198 = ORIENTED_EDGE ( 'NONE', *, *, #306, .F. ) ;
#199 = CIRCLE ( 'NONE', #42, 4.000000000000000000 ) ;
#200 = VECTOR ( 'NONE', #30, 1000.000000000000000 ) ;
#201 = LINE ( 'NONE', #340, #72 ) ;
#202 = ORIENTED_EDGE ( 'NONE', *, *, #139, .T. ) ;
#203 = SPHERICAL_SURFACE ( 'NONE', #109, 8.599999999999985400 ) ;
#204 = CARTESIAN_POINT ( 'NONE',  ( -0.5519199926577972300, 0.0000000000000000000, 3.999999999999998200 ) ) ;
#205 = EDGE_CURVE ( 'NONE', #248, #1, #131, .T. ) ;
#206 = DIRECTION ( 'NONE',  ( -1.000000000000000000, -0.0000000000000000000, -0.0000000000000000000 ) ) ;
#207 = AXIS2_PLACEMENT_3D ( 'NONE', #43, #69, #312 ) ;
#208 =( LENGTH_UNIT ( ) NAMED_UNIT ( * ) SI_UNIT ( .MILLI., .METRE. ) );
#209 = LINE ( 'NONE', #204, #200 ) ;
#210 = CARTESIAN_POINT ( 'NONE',  ( -0.5519199926577972300, 0.0000000000000000000, 0.0000000000000000000 ) ) ;
#211 = CARTESIAN_POINT ( 'NONE',  ( 274.6030744908272800, 0.0000000000000000000, -1.138520487315141500E-017 ) ) ;
#212 = PRODUCT_RELATED_PRODUCT_CATEGORY ( 'part', '', ( #2 ) ) ;
#213 = CARTESIAN_POINT ( 'NONE',  ( 264.3561237248676400, 0.0000000000000000000, 3.999999999999998200 ) ) ;
#214 = AXIS2_PLACEMENT_3D ( 'NONE', #226, #61, #86 ) ;
#215 = CARTESIAN_POINT ( 'NONE',  ( 231.8030744908272700, 0.0000000000000000000, 0.0000000000000000000 ) ) ;
#216 = DIRECTION ( 'NONE',  ( -1.000000000000000000, -0.0000000000000000000, -0.0000000000000000000 ) ) ;
#217 = DIRECTION ( 'NONE',  ( -1.000000000000000000, -0.0000000000000000000, -0.0000000000000000000 ) ) ;
#218 = ORIENTED_EDGE ( 'NONE', *, *, #227, .F. ) ;
#219 = CARTESIAN_POINT ( 'NONE',  ( -0.5519199926577972300, 4.898587196589410900E-016, -3.999999999999998200 ) ) ;
#220 = EDGE_CURVE ( 'NONE', #321, #251, #317, .T. ) ;
#221 = CARTESIAN_POINT ( 'NONE',  ( 263.6030744908272800, 0.0000000000000000000, 6.621705346578931800E-016 ) ) ;
#222 = CARTESIAN_POINT ( 'NONE',  ( 266.1030744908272800, 0.0000000000000000000, 2.364656490659760900E-016 ) ) ;
#223 = APPLICATION_CONTEXT ( 'automotive_design' ) ;
#224 = CARTESIAN_POINT ( 'NONE',  ( 264.3561237248676400, 4.898587196589411800E-016, -3.999999999999998200 ) ) ;
#225 = ORIENTED_EDGE ( 'NONE', *, *, #289, .F. ) ;
#226 = CARTESIAN_POINT ( 'NONE',  ( 265.1162210150969800, 0.0000000000000000000, 0.0000000000000000000 ) ) ;
#227 = EDGE_CURVE ( 'NONE', #165, #152, #12, .T. ) ;
#228 = EDGE_LOOP ( 'NONE', ( #324, #44, #319 ) ) ;
#229 = DIRECTION ( 'NONE',  ( 0.0000000000000000000, 1.000000000000000000, 0.0000000000000000000 ) ) ;
#230 = EDGE_CURVE ( 'NONE', #255, #152, #104, .T. ) ;
#231 = ORIENTED_EDGE ( 'NONE', *, *, #170, .F. ) ;
#232 = EDGE_LOOP ( 'NONE', ( #298, #182, #99 ) ) ;
#233 = PRODUCT_DEFINITION ( 'Î´Öª', '', #22, #25 ) ;
#234 = SURFACE_STYLE_USAGE ( .BOTH. , #98 ) ;
#235 = VERTEX_POINT ( 'NONE', #224 ) ;
#236 = AXIS2_PLACEMENT_3D ( 'NONE', #215, #338, #28 ) ;
#237 = ADVANCED_FACE ( 'NONE', ( #287 ), #342, .T. ) ;
#238 = COLOUR_RGB ( '',1.000000000000000000, 1.000000000000000000, 1.000000000000000000 ) ;
#239 = ORIENTED_EDGE ( 'NONE', *, *, #66, .T. ) ;
#240 = APPLICATION_PROTOCOL_DEFINITION ( 'draft international standard', 'automotive_design', 1998, #223 ) ;
#241 = ADVANCED_FACE ( 'NONE', ( #49 ), #335, .F. ) ;
#242 = CARTESIAN_POINT ( 'NONE',  ( 265.1162210150969800, 4.898587196589409900E-016, -3.999999999999996400 ) ) ;
#243 = SURFACE_SIDE_STYLE ('',( #253 ) ) ;
#244 = EDGE_CURVE ( 'NONE', #158, #235, #201, .T. ) ;
#245 = DIRECTION ( 'NONE',  ( -0.0000000000000000000, 1.000000000000000000, 1.224646799147353200E-016 ) ) ;
#246 = ORIENTED_EDGE ( 'NONE', *, *, #205, .T. ) ;
#247 = ADVANCED_FACE ( 'NONE', ( #250 ), #157, .T. ) ;
#248 = VERTEX_POINT ( 'NONE', #249 ) ;
#249 = CARTESIAN_POINT ( 'NONE',  ( 265.1162210150969800, 0.0000000000000000000, 4.000000000000000000 ) ) ;
#250 = FACE_OUTER_BOUND ( 'NONE', #228, .T. ) ;
#251 = VERTEX_POINT ( 'NONE', #18 ) ;
#252 = EDGE_CURVE ( 'NONE', #87, #158, #167, .T. ) ;
#253 = SURFACE_STYLE_FILL_AREA ( #82 ) ;
#254 = SURFACE_SIDE_STYLE ('',( #128 ) ) ;
#255 = VERTEX_POINT ( 'NONE', #222 ) ;
#256 = UNCERTAINTY_MEASURE_WITH_UNIT (LENGTH_MEASURE( 1.000000000000000100E-005 ), #144, 'distance_accuracy_value', 'NONE');
#257 = ORIENTED_EDGE ( 'NONE', *, *, #145, .T. ) ;
#258 = DIRECTION ( 'NONE',  ( 0.0000000000000000000, 0.0000000000000000000, -1.000000000000000000 ) ) ;
#259 = AXIS2_PLACEMENT_3D ( 'NONE', #58, #206, #32 ) ;
#260 = AXIS2_PLACEMENT_3D ( 'NONE', #134, #100, #309 ) ;
#261 = CYLINDRICAL_SURFACE ( 'NONE', #179, 4.000000000000000000 ) ;
#262 = VERTEX_POINT ( 'NONE', #221 ) ;
#263 = AXIS2_PLACEMENT_3D ( 'NONE', #67, #279, #308 ) ;
#264 = FACE_OUTER_BOUND ( 'NONE', #13, .T. ) ;
#265 = CIRCLE ( 'NONE', #260, 11.00000000000000700 ) ;
#266 = PRESENTATION_LAYER_ASSIGNMENT (  '', '', ( #24 ) ) ;
#267 = FACE_OUTER_BOUND ( 'NONE', #232, .T. ) ;
#268 = ADVANCED_FACE ( 'NONE', ( #118 ), #151, .T. ) ;
#269 = FACE_OUTER_BOUND ( 'NONE', #95, .T. ) ;
#270 = DIRECTION ( 'NONE',  ( 0.0000000000000000000, 0.0000000000000000000, 1.000000000000000000 ) ) ;
#271 = CARTESIAN_POINT ( 'NONE',  ( 266.1030744908272800, 0.0000000000000000000, 2.364656490659762300E-016 ) ) ;
#272 = AXIS2_PLACEMENT_3D ( 'NONE', #194, #65, #291 ) ;
#273 = DIRECTION ( 'NONE',  ( 0.0000000000000000000, -1.000000000000000000, 0.0000000000000000000 ) ) ;
#274 = APPLICATION_CONTEXT ( 'automotive_design' ) ;
#275 = AXIS2_PLACEMENT_3D ( 'NONE', #46, #174, #91 ) ;
#276 = AXIS2_PLACEMENT_3D ( 'NONE', #19, #229, #68 ) ;
#277 =( NAMED_UNIT ( * ) SI_UNIT ( $, .STERADIAN. ) SOLID_ANGLE_UNIT ( ) );
#278 = AXIS2_PLACEMENT_3D ( 'NONE', #150, #285, #125 ) ;
#279 = DIRECTION ( 'NONE',  ( -1.000000000000000000, -0.0000000000000000000, -0.0000000000000000000 ) ) ;
#280 = PRODUCT_CONTEXT ( 'NONE', #274, 'mechanical' ) ;
#281 = EDGE_CURVE ( 'NONE', #235, #1, #189, .T. ) ;
#282 = MANIFOLD_SOLID_BREP ( 'Ðý×ª3', #27 ) ;
#283 = SPHERICAL_SURFACE ( 'NONE', #236, 35.79999999999999700 ) ;
#284 = AXIS2_PLACEMENT_3D ( 'NONE', #161, #299, #270 ) ;
#285 = DIRECTION ( 'NONE',  ( -0.0000000000000000000, 1.000000000000000000, 1.224646799147353200E-016 ) ) ;
#286 = DIRECTION ( 'NONE',  ( 0.0000000000000000000, 0.0000000000000000000, 1.000000000000000000 ) ) ;
#287 = FACE_OUTER_BOUND ( 'NONE', #168, .T. ) ;
#288 = SPHERICAL_SURFACE ( 'NONE', #62, 11.00000000000000700 ) ;
#289 = EDGE_CURVE ( 'NONE', #154, #152, #8, .T. ) ;
#290 = ORIENTED_EDGE ( 'NONE', *, *, #230, .T. ) ;
#291 = DIRECTION ( 'NONE',  ( 1.000000000000000000, 0.0000000000000000000, 0.0000000000000000000 ) ) ;
#292 = STYLED_ITEM ( 'NONE', ( #176 ), #282 ) ;
#293 = AXIS2_PLACEMENT_3D ( 'NONE', #112, #311, #88 ) ;
#294 = ADVANCED_FACE ( 'NONE', ( #52 ), #283, .T. ) ;
#295 = CARTESIAN_POINT ( 'NONE',  ( 267.3789089856075500, 0.0000000000000000000, 0.0000000000000000000 ) ) ;
#296 = ADVANCED_FACE ( 'NONE', ( #122 ), #20, .T. ) ;
#297 = CARTESIAN_POINT ( 'NONE',  ( 124.5233095260452400, 0.0000000000000000000, 0.0000000000000000000 ) ) ;
#298 = ORIENTED_EDGE ( 'NONE', *, *, #346, .F. ) ;
#299 = DIRECTION ( 'NONE',  ( -1.000000000000000000, -0.0000000000000000000, -0.0000000000000000000 ) ) ;
#300 = AXIS2_PLACEMENT_3D ( 'NONE', #188, #273, #141 ) ;
#301 = DIRECTION ( 'NONE',  ( 0.0000000000000000000, 0.0000000000000000000, 1.000000000000000000 ) ) ;
#302 = ORIENTED_EDGE ( 'NONE', *, *, #45, .F. ) ;
#303 = ORIENTED_EDGE ( 'NONE', *, *, #45, .T. ) ;
#304 = CARTESIAN_POINT ( 'NONE',  ( 231.8030744908272700, 0.0000000000000000000, 0.0000000000000000000 ) ) ;
#305 = ORIENTED_EDGE ( 'NONE', *, *, #281, .F. ) ;
#306 = EDGE_CURVE ( 'NONE', #152, #165, #331, .T. ) ;
#307 = FILL_AREA_STYLE ('',( #147 ) ) ;
#308 = DIRECTION ( 'NONE',  ( 0.0000000000000000000, 0.0000000000000000000, 1.000000000000000000 ) ) ;
#309 = DIRECTION ( 'NONE',  ( 0.0000000000000000000, -1.224646799147353000E-016, 1.000000000000000000 ) ) ;
#310 = CARTESIAN_POINT ( 'NONE',  ( 257.5030744908272600, 0.0000000000000000000, -2.901324745673849200E-016 ) ) ;
#311 = DIRECTION ( 'NONE',  ( 0.0000000000000000000, -1.000000000000000000, 0.0000000000000000000 ) ) ;
#312 = DIRECTION ( 'NONE',  ( 0.0000000000000000000, 0.0000000000000000000, 1.000000000000000000 ) ) ;
#313 = ORIENTED_EDGE ( 'NONE', *, *, #227, .T. ) ;
#314 =( LENGTH_UNIT ( ) NAMED_UNIT ( * ) SI_UNIT ( .MILLI., .METRE. ) );
#315 = AXIS2_PLACEMENT_3D ( 'NONE', #36, #187, #9 ) ;
#316 = AXIS2_PLACEMENT_3D ( 'NONE', #102, #77, #74 ) ;
#317 = CIRCLE ( 'NONE', #337, 35.79999999999999700 ) ;
#318 = AXIS2_PLACEMENT_3D ( 'NONE', #83, #245, #60 ) ;
#319 = ORIENTED_EDGE ( 'NONE', *, *, #139, .F. ) ;
#320 = CYLINDRICAL_SURFACE ( 'NONE', #284, 4.000000000000000000 ) ;
#321 = VERTEX_POINT ( 'NONE', #169 ) ;
#322 = MECHANICAL_DESIGN_GEOMETRIC_PRESENTATION_REPRESENTATION (  '', ( #24 ), #89 ) ;
#323 = UNCERTAINTY_MEASURE_WITH_UNIT (LENGTH_MEASURE( 1.000000000000000100E-005 ), #208, 'distance_accuracy_value', 'NONE');
#324 = ORIENTED_EDGE ( 'NONE', *, *, #345, .F. ) ;
#325 = CIRCLE ( 'NONE', #10, 11.00000000000000700 ) ;
#326 = ORIENTED_EDGE ( 'NONE', *, *, #205, .F. ) ;
#327 = CYLINDRICAL_SURFACE ( 'NONE', #17, 3.999999999999998200 ) ;
#328 = DIRECTION ( 'NONE',  ( -1.000000000000000000, -0.0000000000000000000, -0.0000000000000000000 ) ) ;
#329 = DIRECTION ( 'NONE',  ( 0.0000000000000000000, 0.0000000000000000000, 1.000000000000000000 ) ) ;
#330 = ORIENTED_EDGE ( 'NONE', *, *, #170, .T. ) ;
#331 = CIRCLE ( 'NONE', #214, 3.999999999999998200 ) ;
#332 = ADVANCED_FACE ( 'NONE', ( #267 ), #126, .T. ) ;
#333 = CARTESIAN_POINT ( 'NONE',  ( 274.6030744908272800, 0.0000000000000000000, -1.138520487315141500E-017 ) ) ;
#334 = AXIS2_PLACEMENT_3D ( 'NONE', #310, #172, #90 ) ;
#335 = SPHERICAL_SURFACE ( 'NONE', #207, 8.599999999999985400 ) ;
#336 =( GEOMETRIC_REPRESENTATION_CONTEXT ( 3 ) GLOBAL_UNCERTAINTY_ASSIGNED_CONTEXT ( ( #71 ) ) GLOBAL_UNIT_ASSIGNED_CONTEXT ( ( #79, #149, #106 ) ) REPRESENTATION_CONTEXT ( 'NONE', 'WORKASPACE' ) );
#337 = AXIS2_PLACEMENT_3D ( 'NONE', #304, #70, #258 ) ;
#338 = DIRECTION ( 'NONE',  ( 0.0000000000000000000, 1.000000000000000000, 0.0000000000000000000 ) ) ;
#339 = FACE_OUTER_BOUND ( 'NONE', #39, .T. ) ;
#340 = CARTESIAN_POINT ( 'NONE',  ( 124.5233095260452400, 4.898587196589412800E-016, -4.000000000000000000 ) ) ;
#341 = DIRECTION ( 'NONE',  ( 0.0000000000000000000, 0.0000000000000000000, 1.000000000000000000 ) ) ;
#342 = SPHERICAL_SURFACE ( 'NONE', #275, 35.79999999999999700 ) ;
#343 = COLOUR_RGB ( '',1.000000000000000000, 1.000000000000000000, 1.000000000000000000 ) ;
#344 = VECTOR ( 'NONE', #117, 1000.000000000000000 ) ;
#345 = EDGE_CURVE ( 'NONE', #87, #248, #347, .T. ) ;
#346 = EDGE_CURVE ( 'NONE', #235, #262, #265, .T. ) ;
#347 = CIRCLE ( 'NONE', #293, 8.599999999999987200 ) ;
ENDSEC;
END-ISO-10303-21;
