ISO-10303-21;
HEADER;
FILE_DESCRIPTION (( 'STEP AP214' ),
    '1' );
FILE_NAME ('140493½¨Ä£.STEP',
    '2022-03-25T06:07:18',
    ( '' ),
    ( '' ),
    'SwSTEP 2.0',
    'SolidWorks 2020',
    '' );
FILE_SCHEMA (( 'AUTOMOTIVE_DESIGN' ));
ENDSEC;

DATA;
#1 = AXIS2_PLACEMENT_3D ( 'NONE', #22, #114, #153 ) ;
#2 = DIRECTION ( 'NONE',  ( 0.000000000000000000, 0.000000000000000000, 1.000000000000000000 ) ) ;
#3 = LINE ( 'NONE', #131, #30 ) ;
#4 = ADVANCED_BREP_SHAPE_REPRESENTATION ( '140493½¨Ä£', ( #121, #62 ), #150 ) ;
#5 = VERTEX_POINT ( 'NONE', #109 ) ;
#6 = CARTESIAN_POINT ( 'NONE',  ( 2723.685577253686915, -224.9176971297049761, 0.000000000000000000 ) ) ;
#7 = AXIS2_PLACEMENT_3D ( 'NONE', #126, #111, #176 ) ;
#8 = DIRECTION ( 'NONE',  ( 0.000000000000000000, 1.224646799147353207E-16, -1.000000000000000000 ) ) ;
#9 = CARTESIAN_POINT ( 'NONE',  ( 2816.620474919037406, -224.9176971297049761, 0.000000000000000000 ) ) ;
#10 = CIRCLE ( 'NONE', #78, 19.00000046027660972 ) ;
#11 = CARTESIAN_POINT ( 'NONE',  ( 2816.620474919037406, -205.9176966694280111, 0.000000000000000000 ) ) ;
#12 = CARTESIAN_POINT ( 'NONE',  ( 2816.620474919037406, -224.9176971297049761, 0.000000000000000000 ) ) ;
#13 = CIRCLE ( 'NONE', #168, 19.00000046027660972 ) ;
#14 = PRODUCT_RELATED_PRODUCT_CATEGORY ( 'part', '', ( #119 ) ) ;
#15 =( NAMED_UNIT ( * ) SI_UNIT ( $, .STERADIAN. ) SOLID_ANGLE_UNIT ( ) );
#16 = ORIENTED_EDGE ( 'NONE', *, *, #105, .T. ) ;
#17 = CARTESIAN_POINT ( 'NONE',  ( 2807.775366657390805, -224.9176971297049761, 0.000000000000000000 ) ) ;
#18 = AXIS2_PLACEMENT_3D ( 'NONE', #180, #90, #88 ) ;
#19 = DIRECTION ( 'NONE',  ( 0.000000000000000000, 0.000000000000000000, 1.000000000000000000 ) ) ;
#20 = DIRECTION ( 'NONE',  ( 0.000000000000000000, 0.000000000000000000, 1.000000000000000000 ) ) ;
#21 =( GEOMETRIC_REPRESENTATION_CONTEXT ( 3 ) GLOBAL_UNCERTAINTY_ASSIGNED_CONTEXT ( ( #25 ) ) GLOBAL_UNIT_ASSIGNED_CONTEXT ( ( #159, #59, #77 ) ) REPRESENTATION_CONTEXT ( 'NONE', 'WORKASPACE' ) );
#22 = CARTESIAN_POINT ( 'NONE',  ( 2814.542813253686745, -224.9176971297049761, 0.000000000000000000 ) ) ;
#23 = DIRECTION ( 'NONE',  ( -1.000000000000000000, -0.000000000000000000, -0.000000000000000000 ) ) ;
#24 = FACE_OUTER_BOUND ( 'NONE', #110, .T. ) ;
#25 = UNCERTAINTY_MEASURE_WITH_UNIT (LENGTH_MEASURE( 1.000000000000000082E-05 ), #159, 'distance_accuracy_value', 'NONE');
#26 = UNCERTAINTY_MEASURE_WITH_UNIT (LENGTH_MEASURE( 1.000000000000000082E-05 ), #147, 'distance_accuracy_value', 'NONE');
#27 = APPLICATION_PROTOCOL_DEFINITION ( 'draft international standard', 'automotive_design', 1998, #79 ) ;
#28 = ADVANCED_FACE ( 'NONE', ( #66 ), #178, .T. ) ;
#29 =( NAMED_UNIT ( * ) PLANE_ANGLE_UNIT ( ) SI_UNIT ( $, .RADIAN. ) );
#30 = VECTOR ( 'NONE', #116, 1000.000000000000000 ) ;
#31 = PRODUCT_DEFINITION ( 'Î´Öª', '', #169, #128 ) ;
#32 = VERTEX_POINT ( 'NONE', #63 ) ;
#33 = VERTEX_POINT ( 'NONE', #124 ) ;
#34 = ORIENTED_EDGE ( 'NONE', *, *, #165, .T. ) ;
#35 = ORIENTED_EDGE ( 'NONE', *, *, #82, .T. ) ;
#36 = SPHERICAL_SURFACE ( 'NONE', #117, 94.85723600000012823 ) ;
#37 = EDGE_CURVE ( 'NONE', #96, #152, #45, .T. ) ;
#38 = FACE_OUTER_BOUND ( 'NONE', #162, .T. ) ;
#39 = CIRCLE ( 'NONE', #186, 19.00000046027660972 ) ;
#40 = SURFACE_STYLE_FILL_AREA ( #115 ) ;
#41 = SURFACE_STYLE_FILL_AREA ( #42 ) ;
#42 = FILL_AREA_STYLE ('',( #174 ) ) ;
#43 = CIRCLE ( 'NONE', #107, 94.85723600000012823 ) ;
#44 = EDGE_CURVE ( 'NONE', #32, #33, #134, .T. ) ;
#45 = CIRCLE ( 'NONE', #72, 94.85723600000017086 ) ;
#46 = ORIENTED_EDGE ( 'NONE', *, *, #185, .T. ) ;
#47 = DIRECTION ( 'NONE',  ( -0.000000000000000000, 0.000000000000000000, 1.000000000000000000 ) ) ;
#48 = EDGE_CURVE ( 'NONE', #152, #5, #13, .T. ) ;
#49 = ORIENTED_EDGE ( 'NONE', *, *, #48, .T. ) ;
#50 = ORIENTED_EDGE ( 'NONE', *, *, #44, .T. ) ;
#51 = COLOUR_RGB ( '',1.000000000000000000, 1.000000000000000000, 1.000000000000000000 ) ;
#52 = SURFACE_STYLE_USAGE ( .BOTH. , #71 ) ;
#53 = CARTESIAN_POINT ( 'NONE',  ( 2818.542813253686745, -224.9176971297049761, 0.000000000000000000 ) ) ;
#54 = EDGE_CURVE ( 'NONE', #5, #32, #3, .T. ) ;
#55 = SPHERICAL_SURFACE ( 'NONE', #154, 94.85723600000012823 ) ;
#56 = CARTESIAN_POINT ( 'NONE',  ( 2807.775366657390805, -224.9176971297049761, 19.00000046027662393 ) ) ;
#57 = ADVANCED_FACE ( 'NONE', ( #158 ), #73, .T. ) ;
#58 = COLOUR_RGB ( '',1.000000000000000000, 1.000000000000000000, 1.000000000000000000 ) ;
#59 =( NAMED_UNIT ( * ) PLANE_ANGLE_UNIT ( ) SI_UNIT ( $, .RADIAN. ) );
#60 = ADVANCED_FACE ( 'NONE', ( #24 ), #36, .T. ) ;
#61 = ORIENTED_EDGE ( 'NONE', *, *, #64, .F. ) ;
#62 = AXIS2_PLACEMENT_3D ( 'NONE', #94, #92, #160 ) ;
#63 = CARTESIAN_POINT ( 'NONE',  ( 2814.542813253686745, -224.9176971297049761, -19.00000046027663814 ) ) ;
#64 = EDGE_CURVE ( 'NONE', #140, #152, #113, .T. ) ;
#65 = ORIENTED_EDGE ( 'NONE', *, *, #105, .F. ) ;
#66 = FACE_OUTER_BOUND ( 'NONE', #163, .T. ) ;
#67 = STYLED_ITEM ( 'NONE', ( #106 ), #4 ) ;
#68 = DIRECTION ( 'NONE',  ( 1.000000000000000000, 0.000000000000000000, 0.000000000000000000 ) ) ;
#69 = ADVANCED_FACE ( 'NONE', ( #102 ), #155, .T. ) ;
#70 = DIRECTION ( 'NONE',  ( 0.000000000000000000, 1.000000000000000000, 1.224646799147353207E-16 ) ) ;
#71 = SURFACE_SIDE_STYLE ('',( #40 ) ) ;
#72 = AXIS2_PLACEMENT_3D ( 'NONE', #6, #47, #68 ) ;
#73 = PLANE ( 'NONE',  #18 ) ;
#74 = CARTESIAN_POINT ( 'NONE',  ( 2723.685577253686915, -224.9176971297049761, 0.000000000000000000 ) ) ;
#75 = DIRECTION ( 'NONE',  ( -1.000000000000000000, -0.000000000000000000, -0.000000000000000000 ) ) ;
#76 =( GEOMETRIC_REPRESENTATION_CONTEXT ( 3 ) GLOBAL_UNCERTAINTY_ASSIGNED_CONTEXT ( ( #177 ) ) GLOBAL_UNIT_ASSIGNED_CONTEXT ( ( #144, #170, #118 ) ) REPRESENTATION_CONTEXT ( 'NONE', 'WORKASPACE' ) );
#77 =( NAMED_UNIT ( * ) SI_UNIT ( $, .STERADIAN. ) SOLID_ANGLE_UNIT ( ) );
#78 = AXIS2_PLACEMENT_3D ( 'NONE', #9, #23, #156 ) ;
#79 = APPLICATION_CONTEXT ( 'automotive_design' ) ;
#80 = EDGE_LOOP ( 'NONE', ( #166, #99, #16, #46, #83 ) ) ;
#81 = STYLED_ITEM ( 'NONE', ( #103 ), #121 ) ;
#82 = EDGE_CURVE ( 'NONE', #33, #32, #173, .T. ) ;
#83 = ORIENTED_EDGE ( 'NONE', *, *, #44, .F. ) ;
#84 = ADVANCED_FACE ( 'NONE', ( #38 ), #55, .T. ) ;
#85 = MECHANICAL_DESIGN_GEOMETRIC_PRESENTATION_REPRESENTATION (  '', ( #67 ), #21 ) ;
#86 = CARTESIAN_POINT ( 'NONE',  ( 2723.685577253686915, -224.9176971297049761, 0.000000000000000000 ) ) ;
#87 = DIRECTION ( 'NONE',  ( -1.000000000000000000, -0.000000000000000000, -0.000000000000000000 ) ) ;
#88 = DIRECTION ( 'NONE',  ( -0.000000000000000000, 0.000000000000000000, 1.000000000000000000 ) ) ;
#89 = AXIS2_PLACEMENT_3D ( 'NONE', #129, #87, #20 ) ;
#90 = DIRECTION ( 'NONE',  ( -1.000000000000000000, 0.000000000000000000, -0.000000000000000000 ) ) ;
#91 = DIRECTION ( 'NONE',  ( 0.000000000000000000, 1.000000000000000000, 0.000000000000000000 ) ) ;
#92 = DIRECTION ( 'NONE',  ( 0.000000000000000000, 0.000000000000000000, 1.000000000000000000 ) ) ;
#93 = AXIS2_PLACEMENT_3D ( 'NONE', #17, #141, #2 ) ;
#94 = CARTESIAN_POINT ( 'NONE',  ( 0.000000000000000000, 0.000000000000000000, 0.000000000000000000 ) ) ;
#95 = PRODUCT_CONTEXT ( 'NONE', #79, 'mechanical' ) ;
#96 = VERTEX_POINT ( 'NONE', #53 ) ;
#97 = CARTESIAN_POINT ( 'NONE',  ( 2816.620474919037406, -224.9176971297049761, 0.000000000000000000 ) ) ;
#98 = VERTEX_POINT ( 'NONE', #142 ) ;
#99 = ORIENTED_EDGE ( 'NONE', *, *, #182, .T. ) ;
#100 = ORIENTED_EDGE ( 'NONE', *, *, #37, .T. ) ;
#101 = VECTOR ( 'NONE', #127, 1000.000000000000000 ) ;
#102 = FACE_OUTER_BOUND ( 'NONE', #80, .T. ) ;
#103 = PRESENTATION_STYLE_ASSIGNMENT (( #52 ) ) ;
#104 = AXIS2_PLACEMENT_3D ( 'NONE', #167, #181, #172 ) ;
#105 = EDGE_CURVE ( 'NONE', #98, #140, #10, .T. ) ;
#106 = PRESENTATION_STYLE_ASSIGNMENT (( #120 ) ) ;
#107 = AXIS2_PLACEMENT_3D ( 'NONE', #74, #8, #70 ) ;
#108 = APPLICATION_PROTOCOL_DEFINITION ( 'draft international standard', 'automotive_design', 1998, #122 ) ;
#109 = CARTESIAN_POINT ( 'NONE',  ( 2816.620474919037406, -224.9176971297049761, -19.00000046027660972 ) ) ;
#110 = EDGE_LOOP ( 'NONE', ( #123, #100, #61, #65 ) ) ;
#111 = DIRECTION ( 'NONE',  ( -1.000000000000000000, -0.000000000000000000, -0.000000000000000000 ) ) ;
#112 = CARTESIAN_POINT ( 'NONE',  ( 2723.685577253686915, -224.9176971297049761, 0.000000000000000000 ) ) ;
#113 = CIRCLE ( 'NONE', #104, 19.00000046027660972 ) ;
#114 = DIRECTION ( 'NONE',  ( -1.000000000000000000, -0.000000000000000000, -0.000000000000000000 ) ) ;
#115 = FILL_AREA_STYLE ('',( #130 ) ) ;
#116 = DIRECTION ( 'NONE',  ( -1.000000000000000000, -0.000000000000000000, -0.000000000000000000 ) ) ;
#117 = AXIS2_PLACEMENT_3D ( 'NONE', #112, #171, #91 ) ;
#118 =( NAMED_UNIT ( * ) SI_UNIT ( $, .STERADIAN. ) SOLID_ANGLE_UNIT ( ) );
#119 = PRODUCT ( '140493½¨Ä£', '140493½¨Ä£', '', ( #95 ) ) ;
#120 = SURFACE_STYLE_USAGE ( .BOTH. , #133 ) ;
#121 = MANIFOLD_SOLID_BREP ( 'Ðý×ª1', #161 ) ;
#122 = APPLICATION_CONTEXT ( 'automotive_design' ) ;
#123 = ORIENTED_EDGE ( 'NONE', *, *, #165, .F. ) ;
#124 = CARTESIAN_POINT ( 'NONE',  ( 2814.542813253686745, -224.9176971297049761, 19.00000046027663814 ) ) ;
#125 = ORIENTED_EDGE ( 'NONE', *, *, #182, .F. ) ;
#126 = CARTESIAN_POINT ( 'NONE',  ( 2814.542813253686745, -224.9176971297049761, 0.000000000000000000 ) ) ;
#127 = DIRECTION ( 'NONE',  ( -1.000000000000000000, -0.000000000000000000, -0.000000000000000000 ) ) ;
#128 = PRODUCT_DEFINITION_CONTEXT ( 'detailed design', #122, 'design' ) ;
#129 = CARTESIAN_POINT ( 'NONE',  ( 2807.775366657390805, -224.9176971297049761, 0.000000000000000000 ) ) ;
#130 = FILL_AREA_STYLE_COLOUR ( '', #51 ) ;
#131 = CARTESIAN_POINT ( 'NONE',  ( 2807.775366657390805, -224.9176971297049761, -19.00000046027662393 ) ) ;
#132 = DIRECTION ( 'NONE',  ( 0.000000000000000000, 0.000000000000000000, 1.000000000000000000 ) ) ;
#133 = SURFACE_SIDE_STYLE ('',( #41 ) ) ;
#134 = CIRCLE ( 'NONE', #7, 19.00000046027663814 ) ;
#135 = SHAPE_DEFINITION_REPRESENTATION ( #139, #4 ) ;
#136 = ORIENTED_EDGE ( 'NONE', *, *, #54, .T. ) ;
#137 = ORIENTED_EDGE ( 'NONE', *, *, #185, .F. ) ;
#138 = ORIENTED_EDGE ( 'NONE', *, *, #64, .T. ) ;
#139 = PRODUCT_DEFINITION_SHAPE ( 'NONE', 'NONE',  #31 ) ;
#140 = VERTEX_POINT ( 'NONE', #157 ) ;
#141 = DIRECTION ( 'NONE',  ( -1.000000000000000000, -0.000000000000000000, -0.000000000000000000 ) ) ;
#142 = CARTESIAN_POINT ( 'NONE',  ( 2816.620474919037406, -243.9176975899819126, -2.326828974747640411E-15 ) ) ;
#143 = DIRECTION ( 'NONE',  ( -0.000000000000000000, 0.000000000000000000, -1.000000000000000000 ) ) ;
#144 =( LENGTH_UNIT ( ) NAMED_UNIT ( * ) SI_UNIT ( .MILLI., .METRE. ) );
#145 = PRESENTATION_LAYER_ASSIGNMENT (  '', '', ( #81 ) ) ;
#146 = DIRECTION ( 'NONE',  ( 0.000000000000000000, 1.000000000000000000, 0.000000000000000000 ) ) ;
#147 =( LENGTH_UNIT ( ) NAMED_UNIT ( * ) SI_UNIT ( .MILLI., .METRE. ) );
#148 = ORIENTED_EDGE ( 'NONE', *, *, #37, .F. ) ;
#149 = DIRECTION ( 'NONE',  ( -1.000000000000000000, -0.000000000000000000, -0.000000000000000000 ) ) ;
#150 =( GEOMETRIC_REPRESENTATION_CONTEXT ( 3 ) GLOBAL_UNCERTAINTY_ASSIGNED_CONTEXT ( ( #26 ) ) GLOBAL_UNIT_ASSIGNED_CONTEXT ( ( #147, #29, #15 ) ) REPRESENTATION_CONTEXT ( 'NONE', 'WORKASPACE' ) );
#151 = ORIENTED_EDGE ( 'NONE', *, *, #82, .F. ) ;
#152 = VERTEX_POINT ( 'NONE', #11 ) ;
#153 = DIRECTION ( 'NONE',  ( 0.000000000000000000, 0.000000000000000000, 1.000000000000000000 ) ) ;
#154 = AXIS2_PLACEMENT_3D ( 'NONE', #86, #143, #146 ) ;
#155 = CYLINDRICAL_SURFACE ( 'NONE', #89, 19.00000046027662393 ) ;
#156 = DIRECTION ( 'NONE',  ( 0.000000000000000000, 0.000000000000000000, 1.000000000000000000 ) ) ;
#157 = CARTESIAN_POINT ( 'NONE',  ( 2816.620474919037406, -224.9176971297049761, 19.00000046027660972 ) ) ;
#158 = FACE_OUTER_BOUND ( 'NONE', #179, .T. ) ;
#159 =( LENGTH_UNIT ( ) NAMED_UNIT ( * ) SI_UNIT ( .MILLI., .METRE. ) );
#160 = DIRECTION ( 'NONE',  ( 1.000000000000000000, 0.000000000000000000, 0.000000000000000000 ) ) ;
#161 = CLOSED_SHELL ( 'NONE', ( #28, #84, #57, #60, #69 ) ) ;
#162 = EDGE_LOOP ( 'NONE', ( #148, #34, #125, #175 ) ) ;
#163 = EDGE_LOOP ( 'NONE', ( #49, #136, #151, #137, #138 ) ) ;
#164 = PRESENTATION_LAYER_ASSIGNMENT (  '', '', ( #67 ) ) ;
#165 = EDGE_CURVE ( 'NONE', #96, #98, #43, .T. ) ;
#166 = ORIENTED_EDGE ( 'NONE', *, *, #54, .F. ) ;
#167 = CARTESIAN_POINT ( 'NONE',  ( 2816.620474919037406, -224.9176971297049761, 0.000000000000000000 ) ) ;
#168 = AXIS2_PLACEMENT_3D ( 'NONE', #97, #149, #19 ) ;
#169 = PRODUCT_DEFINITION_FORMATION_WITH_SPECIFIED_SOURCE ( 'ÈÎºÎ', '', #119, .NOT_KNOWN. ) ;
#170 =( NAMED_UNIT ( * ) PLANE_ANGLE_UNIT ( ) SI_UNIT ( $, .RADIAN. ) );
#171 = DIRECTION ( 'NONE',  ( -0.000000000000000000, 0.000000000000000000, -1.000000000000000000 ) ) ;
#172 = DIRECTION ( 'NONE',  ( 0.000000000000000000, 0.000000000000000000, 1.000000000000000000 ) ) ;
#173 = CIRCLE ( 'NONE', #1, 19.00000046027663814 ) ;
#174 = FILL_AREA_STYLE_COLOUR ( '', #58 ) ;
#175 = ORIENTED_EDGE ( 'NONE', *, *, #48, .F. ) ;
#176 = DIRECTION ( 'NONE',  ( 0.000000000000000000, 0.000000000000000000, 1.000000000000000000 ) ) ;
#177 = UNCERTAINTY_MEASURE_WITH_UNIT (LENGTH_MEASURE( 1.000000000000000082E-05 ), #144, 'distance_accuracy_value', 'NONE');
#178 = CYLINDRICAL_SURFACE ( 'NONE', #93, 19.00000046027662393 ) ;
#179 = EDGE_LOOP ( 'NONE', ( #35, #50 ) ) ;
#180 = CARTESIAN_POINT ( 'NONE',  ( 2814.542813253686745, 0.000000000000000000, 0.000000000000000000 ) ) ;
#181 = DIRECTION ( 'NONE',  ( -1.000000000000000000, -0.000000000000000000, -0.000000000000000000 ) ) ;
#182 = EDGE_CURVE ( 'NONE', #5, #98, #39, .T. ) ;
#183 = LINE ( 'NONE', #56, #101 ) ;
#184 = MECHANICAL_DESIGN_GEOMETRIC_PRESENTATION_REPRESENTATION (  '', ( #81 ), #76 ) ;
#185 = EDGE_CURVE ( 'NONE', #140, #33, #183, .T. ) ;
#186 = AXIS2_PLACEMENT_3D ( 'NONE', #12, #75, #132 ) ;
ENDSEC;
END-ISO-10303-21;
