ISO-10303-21;
HEADER;
FILE_DESCRIPTION (( 'STEP AP214' ),
    '1' );
FILE_NAME ('140491.STEP',
    '2022-03-25T06:03:12',
    ( '' ),
    ( '' ),
    'SwSTEP 2.0',
    'SolidWorks 2020',
    '' );
FILE_SCHEMA (( 'AUTOMOTIVE_DESIGN' ));
ENDSEC;

DATA;
#1 = AXIS2_PLACEMENT_3D ( 'NONE', #43, #29, #155 ) ;
#2 = DIRECTION ( 'NONE',  ( -1.000000000000000000, -0.000000000000000000, -0.000000000000000000 ) ) ;
#3 = DIRECTION ( 'NONE',  ( -0.000000000000000000, 0.000000000000000000, 1.000000000000000000 ) ) ;
#4 = VERTEX_POINT ( 'NONE', #153 ) ;
#5 = ORIENTED_EDGE ( 'NONE', *, *, #144, .T. ) ;
#6 = FILL_AREA_STYLE ('',( #119 ) ) ;
#7 = ORIENTED_EDGE ( 'NONE', *, *, #28, .T. ) ;
#8 = CARTESIAN_POINT ( 'NONE',  ( 2538.373157710037958, -224.9176971297049761, 0.000000000000000000 ) ) ;
#9 = CARTESIAN_POINT ( 'NONE',  ( 2554.323349113742097, -224.9176971297049761, 0.000000000000000000 ) ) ;
#10 = EDGE_CURVE ( 'NONE', #53, #4, #145, .T. ) ;
#11 = VERTEX_POINT ( 'NONE', #31 ) ;
#12 = DIRECTION ( 'NONE',  ( 0.000000000000000000, 0.000000000000000000, 1.000000000000000000 ) ) ;
#13 = ADVANCED_FACE ( 'NONE', ( #164 ), #138, .T. ) ;
#14 = DIRECTION ( 'NONE',  ( 0.000000000000000000, 1.000000000000000000, 0.000000000000000000 ) ) ;
#15 = UNCERTAINTY_MEASURE_WITH_UNIT (LENGTH_MEASURE( 1.000000000000000082E-05 ), #129, 'distance_accuracy_value', 'NONE');
#16 = AXIS2_PLACEMENT_3D ( 'NONE', #45, #63, #114 ) ;
#17 = DIRECTION ( 'NONE',  ( -0.000000000000000000, 0.000000000000000000, 1.000000000000000000 ) ) ;
#18 = EDGE_CURVE ( 'NONE', #38, #40, #65, .T. ) ;
#19 = AXIS2_PLACEMENT_3D ( 'NONE', #159, #37, #148 ) ;
#20 = DIRECTION ( 'NONE',  ( 0.000000000000000000, 0.000000000000000000, 1.000000000000000000 ) ) ;
#21 = ADVANCED_BREP_SHAPE_REPRESENTATION ( '140491', ( #117, #92 ), #118 ) ;
#22 = EDGE_CURVE ( 'NONE', #120, #40, #151, .T. ) ;
#23 = ORIENTED_EDGE ( 'NONE', *, *, #18, .F. ) ;
#24 = CARTESIAN_POINT ( 'NONE',  ( 2554.323349113742097, -224.9176971297049761, 18.99999986945273633 ) ) ;
#25 = CIRCLE ( 'NONE', #124, 18.99999986945272212 ) ;
#26 = ORIENTED_EDGE ( 'NONE', *, *, #18, .T. ) ;
#27 = AXIS2_PLACEMENT_3D ( 'NONE', #42, #108, #98 ) ;
#28 = EDGE_CURVE ( 'NONE', #4, #38, #87, .T. ) ;
#29 = DIRECTION ( 'NONE',  ( -1.000000000000000000, -0.000000000000000000, -0.000000000000000000 ) ) ;
#30 = PRESENTATION_LAYER_ASSIGNMENT (  '', '', ( #35 ) ) ;
#31 = CARTESIAN_POINT ( 'NONE',  ( 2569.090795710038492, -224.9176971297049761, 0.000000000000000000 ) ) ;
#32 = UNCERTAINTY_MEASURE_WITH_UNIT (LENGTH_MEASURE( 1.000000000000000082E-05 ), #55, 'distance_accuracy_value', 'NONE');
#33 = CARTESIAN_POINT ( 'NONE',  ( 2554.323349113742097, -224.9176971297049761, -18.99999986945273633 ) ) ;
#34 = PRESENTATION_STYLE_ASSIGNMENT (( #86 ) ) ;
#35 = STYLED_ITEM ( 'NONE', ( #34 ), #21 ) ;
#36 = SURFACE_STYLE_FILL_AREA ( #6 ) ;
#37 = DIRECTION ( 'NONE',  ( -1.000000000000000000, -0.000000000000000000, -0.000000000000000000 ) ) ;
#38 = VERTEX_POINT ( 'NONE', #154 ) ;
#39 = MECHANICAL_DESIGN_GEOMETRIC_PRESENTATION_REPRESENTATION (  '', ( #35 ), #128 ) ;
#40 = VERTEX_POINT ( 'NONE', #82 ) ;
#41 = FILL_AREA_STYLE ('',( #95 ) ) ;
#42 = CARTESIAN_POINT ( 'NONE',  ( 2562.509712751299503, -224.9176971297049761, 0.000000000000000000 ) ) ;
#43 = CARTESIAN_POINT ( 'NONE',  ( 2562.509712751299503, -224.9176971297049761, 0.000000000000000000 ) ) ;
#44 = PRESENTATION_LAYER_ASSIGNMENT (  '', '', ( #156 ) ) ;
#45 = CARTESIAN_POINT ( 'NONE',  ( 2538.373157710037958, -224.9176971297049761, 0.000000000000000000 ) ) ;
#46 = MECHANICAL_DESIGN_GEOMETRIC_PRESENTATION_REPRESENTATION (  '', ( #156 ), #142 ) ;
#47 =( NAMED_UNIT ( * ) PLANE_ANGLE_UNIT ( ) SI_UNIT ( $, .RADIAN. ) );
#48 = CIRCLE ( 'NONE', #16, 30.71763800000035260 ) ;
#49 = DIRECTION ( 'NONE',  ( 1.000000000000000000, 0.000000000000000000, 0.000000000000000000 ) ) ;
#50 = ORIENTED_EDGE ( 'NONE', *, *, #22, .T. ) ;
#51 = SURFACE_SIDE_STYLE ('',( #36 ) ) ;
#52 = APPLICATION_PROTOCOL_DEFINITION ( 'draft international standard', 'automotive_design', 1998, #99 ) ;
#53 = VERTEX_POINT ( 'NONE', #137 ) ;
#54 = CIRCLE ( 'NONE', #113, 30.71763800000049116 ) ;
#55 =( LENGTH_UNIT ( ) NAMED_UNIT ( * ) SI_UNIT ( .MILLI., .METRE. ) );
#56 = FACE_OUTER_BOUND ( 'NONE', #162, .T. ) ;
#57 = SURFACE_STYLE_USAGE ( .BOTH. , #184 ) ;
#58 = CARTESIAN_POINT ( 'NONE',  ( 2554.323349113742097, -224.9176971297049761, 0.000000000000000000 ) ) ;
#59 = CARTESIAN_POINT ( 'NONE',  ( 2562.509712751299503, -243.9176969991577550, -2.326828902392547862E-15 ) ) ;
#60 = VECTOR ( 'NONE', #115, 1000.000000000000000 ) ;
#61 = EDGE_LOOP ( 'NONE', ( #7, #26, #134, #90, #176 ) ) ;
#62 = ORIENTED_EDGE ( 'NONE', *, *, #10, .F. ) ;
#63 = DIRECTION ( 'NONE',  ( 0.000000000000000000, 1.224646799147353207E-16, -1.000000000000000000 ) ) ;
#64 = ORIENTED_EDGE ( 'NONE', *, *, #143, .T. ) ;
#65 = LINE ( 'NONE', #33, #100 ) ;
#66 = CIRCLE ( 'NONE', #103, 18.99999986945275054 ) ;
#67 = EDGE_LOOP ( 'NONE', ( #93, #149, #62, #106 ) ) ;
#68 = CARTESIAN_POINT ( 'NONE',  ( 2561.090795710038037, -224.9176971297049761, 0.000000000000000000 ) ) ;
#69 = ORIENTED_EDGE ( 'NONE', *, *, #116, .T. ) ;
#70 = APPLICATION_CONTEXT ( 'automotive_design' ) ;
#71 = AXIS2_PLACEMENT_3D ( 'NONE', #105, #77, #17 ) ;
#72 = FACE_OUTER_BOUND ( 'NONE', #179, .T. ) ;
#73 = DIRECTION ( 'NONE',  ( 1.000000000000000000, 0.000000000000000000, 0.000000000000000000 ) ) ;
#74 = DIRECTION ( 'NONE',  ( -0.000000000000000000, 0.000000000000000000, -1.000000000000000000 ) ) ;
#75 = ORIENTED_EDGE ( 'NONE', *, *, #28, .F. ) ;
#76 = PRODUCT_RELATED_PRODUCT_CATEGORY ( 'part', '', ( #172 ) ) ;
#77 = DIRECTION ( 'NONE',  ( -1.000000000000000000, 0.000000000000000000, -0.000000000000000000 ) ) ;
#78 = EDGE_LOOP ( 'NONE', ( #79, #5, #161, #75 ) ) ;
#79 = ORIENTED_EDGE ( 'NONE', *, *, #177, .F. ) ;
#80 = FACE_OUTER_BOUND ( 'NONE', #67, .T. ) ;
#81 =( NAMED_UNIT ( * ) SI_UNIT ( $, .STERADIAN. ) SOLID_ANGLE_UNIT ( ) );
#82 = CARTESIAN_POINT ( 'NONE',  ( 2561.090795710038037, -224.9176971297049761, -18.99999986945272212 ) ) ;
#83 = AXIS2_PLACEMENT_3D ( 'NONE', #174, #74, #102 ) ;
#84 = DIRECTION ( 'NONE',  ( 0.000000000000000000, 0.000000000000000000, 1.000000000000000000 ) ) ;
#85 = SURFACE_STYLE_FILL_AREA ( #41 ) ;
#86 = SURFACE_STYLE_USAGE ( .BOTH. , #51 ) ;
#87 = CIRCLE ( 'NONE', #27, 18.99999986945275054 ) ;
#88 = PLANE ( 'NONE',  #71 ) ;
#89 = DIRECTION ( 'NONE',  ( 0.000000000000000000, 0.000000000000000000, 1.000000000000000000 ) ) ;
#90 = ORIENTED_EDGE ( 'NONE', *, *, #165, .F. ) ;
#91 =( NAMED_UNIT ( * ) PLANE_ANGLE_UNIT ( ) SI_UNIT ( $, .RADIAN. ) );
#92 = AXIS2_PLACEMENT_3D ( 'NONE', #146, #20, #73 ) ;
#93 = ORIENTED_EDGE ( 'NONE', *, *, #144, .F. ) ;
#94 = PRODUCT_CONTEXT ( 'NONE', #70, 'mechanical' ) ;
#95 = FILL_AREA_STYLE_COLOUR ( '', #152 ) ;
#96 = COLOUR_RGB ( '',1.000000000000000000, 1.000000000000000000, 1.000000000000000000 ) ;
#97 = ORIENTED_EDGE ( 'NONE', *, *, #135, .T. ) ;
#98 = DIRECTION ( 'NONE',  ( 0.000000000000000000, 0.000000000000000000, 1.000000000000000000 ) ) ;
#99 = APPLICATION_CONTEXT ( 'automotive_design' ) ;
#100 = VECTOR ( 'NONE', #111, 1000.000000000000000 ) ;
#101 =( LENGTH_UNIT ( ) NAMED_UNIT ( * ) SI_UNIT ( .MILLI., .METRE. ) );
#102 = DIRECTION ( 'NONE',  ( 0.000000000000000000, 1.000000000000000000, 0.000000000000000000 ) ) ;
#103 = AXIS2_PLACEMENT_3D ( 'NONE', #136, #2, #89 ) ;
#104 = PRODUCT_DEFINITION ( 'Î´Öª', '', #180, #158 ) ;
#105 = CARTESIAN_POINT ( 'NONE',  ( 2561.090795710038037, 0.000000000000000000, 0.000000000000000000 ) ) ;
#106 = ORIENTED_EDGE ( 'NONE', *, *, #143, .F. ) ;
#107 = AXIS2_PLACEMENT_3D ( 'NONE', #9, #139, #12 ) ;
#108 = DIRECTION ( 'NONE',  ( -1.000000000000000000, -0.000000000000000000, -0.000000000000000000 ) ) ;
#109 = ADVANCED_FACE ( 'NONE', ( #56 ), #183, .T. ) ;
#110 = DIRECTION ( 'NONE',  ( -1.000000000000000000, -0.000000000000000000, -0.000000000000000000 ) ) ;
#111 = DIRECTION ( 'NONE',  ( -1.000000000000000000, -0.000000000000000000, -0.000000000000000000 ) ) ;
#112 = ADVANCED_FACE ( 'NONE', ( #169 ), #166, .T. ) ;
#113 = AXIS2_PLACEMENT_3D ( 'NONE', #147, #3, #49 ) ;
#114 = DIRECTION ( 'NONE',  ( 0.000000000000000000, 1.000000000000000000, 1.224646799147353454E-16 ) ) ;
#115 = DIRECTION ( 'NONE',  ( -1.000000000000000000, -0.000000000000000000, -0.000000000000000000 ) ) ;
#116 = EDGE_CURVE ( 'NONE', #40, #120, #25, .T. ) ;
#117 = MANIFOLD_SOLID_BREP ( 'Ðý×ª1', #157 ) ;
#118 =( GEOMETRIC_REPRESENTATION_CONTEXT ( 3 ) GLOBAL_UNCERTAINTY_ASSIGNED_CONTEXT ( ( #130 ) ) GLOBAL_UNIT_ASSIGNED_CONTEXT ( ( #101, #47, #141 ) ) REPRESENTATION_CONTEXT ( 'NONE', 'WORKASPACE' ) );
#119 = FILL_AREA_STYLE_COLOUR ( '', #96 ) ;
#120 = VERTEX_POINT ( 'NONE', #123 ) ;
#121 = DIRECTION ( 'NONE',  ( -1.000000000000000000, -0.000000000000000000, -0.000000000000000000 ) ) ;
#122 = ADVANCED_FACE ( 'NONE', ( #80 ), #131, .T. ) ;
#123 = CARTESIAN_POINT ( 'NONE',  ( 2561.090795710038037, -224.9176971297049761, 18.99999986945272212 ) ) ;
#124 = AXIS2_PLACEMENT_3D ( 'NONE', #68, #181, #126 ) ;
#125 = DIRECTION ( 'NONE',  ( -0.000000000000000000, 0.000000000000000000, -1.000000000000000000 ) ) ;
#126 = DIRECTION ( 'NONE',  ( 0.000000000000000000, 0.000000000000000000, 1.000000000000000000 ) ) ;
#127 = ORIENTED_EDGE ( 'NONE', *, *, #165, .T. ) ;
#128 =( GEOMETRIC_REPRESENTATION_CONTEXT ( 3 ) GLOBAL_UNCERTAINTY_ASSIGNED_CONTEXT ( ( #15 ) ) GLOBAL_UNIT_ASSIGNED_CONTEXT ( ( #129, #91, #150 ) ) REPRESENTATION_CONTEXT ( 'NONE', 'WORKASPACE' ) );
#129 =( LENGTH_UNIT ( ) NAMED_UNIT ( * ) SI_UNIT ( .MILLI., .METRE. ) );
#130 = UNCERTAINTY_MEASURE_WITH_UNIT (LENGTH_MEASURE( 1.000000000000000082E-05 ), #101, 'distance_accuracy_value', 'NONE');
#131 = SPHERICAL_SURFACE ( 'NONE', #83, 30.71763800000036326 ) ;
#132 = ORIENTED_EDGE ( 'NONE', *, *, #116, .F. ) ;
#133 = CIRCLE ( 'NONE', #19, 18.99999986945275054 ) ;
#134 = ORIENTED_EDGE ( 'NONE', *, *, #22, .F. ) ;
#135 = EDGE_CURVE ( 'NONE', #38, #160, #66, .T. ) ;
#136 = CARTESIAN_POINT ( 'NONE',  ( 2562.509712751299503, -224.9176971297049761, 0.000000000000000000 ) ) ;
#137 = CARTESIAN_POINT ( 'NONE',  ( 2562.509712751299503, -224.9176971297049761, 18.99999986945275054 ) ) ;
#138 = SPHERICAL_SURFACE ( 'NONE', #182, 30.71763800000036326 ) ;
#139 = DIRECTION ( 'NONE',  ( -1.000000000000000000, -0.000000000000000000, -0.000000000000000000 ) ) ;
#140 =( NAMED_UNIT ( * ) PLANE_ANGLE_UNIT ( ) SI_UNIT ( $, .RADIAN. ) );
#141 =( NAMED_UNIT ( * ) SI_UNIT ( $, .STERADIAN. ) SOLID_ANGLE_UNIT ( ) );
#142 =( GEOMETRIC_REPRESENTATION_CONTEXT ( 3 ) GLOBAL_UNCERTAINTY_ASSIGNED_CONTEXT ( ( #32 ) ) GLOBAL_UNIT_ASSIGNED_CONTEXT ( ( #55, #140, #81 ) ) REPRESENTATION_CONTEXT ( 'NONE', 'WORKASPACE' ) );
#143 = EDGE_CURVE ( 'NONE', #160, #53, #133, .T. ) ;
#144 = EDGE_CURVE ( 'NONE', #11, #160, #48, .T. ) ;
#145 = CIRCLE ( 'NONE', #1, 18.99999986945275054 ) ;
#146 = CARTESIAN_POINT ( 'NONE',  ( 0.000000000000000000, 0.000000000000000000, 0.000000000000000000 ) ) ;
#147 = CARTESIAN_POINT ( 'NONE',  ( 2538.373157710037958, -224.9176971297049761, 0.000000000000000000 ) ) ;
#148 = DIRECTION ( 'NONE',  ( 0.000000000000000000, 0.000000000000000000, 1.000000000000000000 ) ) ;
#149 = ORIENTED_EDGE ( 'NONE', *, *, #177, .T. ) ;
#150 =( NAMED_UNIT ( * ) SI_UNIT ( $, .STERADIAN. ) SOLID_ANGLE_UNIT ( ) );
#151 = CIRCLE ( 'NONE', #167, 18.99999986945272212 ) ;
#152 = COLOUR_RGB ( '',1.000000000000000000, 1.000000000000000000, 1.000000000000000000 ) ;
#153 = CARTESIAN_POINT ( 'NONE',  ( 2562.509712751299503, -205.9176972602521971, 0.000000000000000000 ) ) ;
#154 = CARTESIAN_POINT ( 'NONE',  ( 2562.509712751299503, -224.9176971297049761, -18.99999986945275054 ) ) ;
#155 = DIRECTION ( 'NONE',  ( 0.000000000000000000, 0.000000000000000000, 1.000000000000000000 ) ) ;
#156 = STYLED_ITEM ( 'NONE', ( #168 ), #117 ) ;
#157 = CLOSED_SHELL ( 'NONE', ( #112, #13, #170, #122, #109 ) ) ;
#158 = PRODUCT_DEFINITION_CONTEXT ( 'detailed design', #99, 'design' ) ;
#159 = CARTESIAN_POINT ( 'NONE',  ( 2562.509712751299503, -224.9176971297049761, 0.000000000000000000 ) ) ;
#160 = VERTEX_POINT ( 'NONE', #59 ) ;
#161 = ORIENTED_EDGE ( 'NONE', *, *, #135, .F. ) ;
#162 = EDGE_LOOP ( 'NONE', ( #23, #97, #64, #127, #132 ) ) ;
#163 = DIRECTION ( 'NONE',  ( 0.000000000000000000, 0.000000000000000000, 1.000000000000000000 ) ) ;
#164 = FACE_OUTER_BOUND ( 'NONE', #78, .T. ) ;
#165 = EDGE_CURVE ( 'NONE', #53, #120, #175, .T. ) ;
#166 = CYLINDRICAL_SURFACE ( 'NONE', #107, 18.99999986945273633 ) ;
#167 = AXIS2_PLACEMENT_3D ( 'NONE', #186, #121, #84 ) ;
#168 = PRESENTATION_STYLE_ASSIGNMENT (( #57 ) ) ;
#169 = FACE_OUTER_BOUND ( 'NONE', #61, .T. ) ;
#170 = ADVANCED_FACE ( 'NONE', ( #72 ), #88, .T. ) ;
#171 = PRODUCT_DEFINITION_SHAPE ( 'NONE', 'NONE',  #104 ) ;
#172 = PRODUCT ( '140491', '140491', '', ( #94 ) ) ;
#173 = APPLICATION_PROTOCOL_DEFINITION ( 'draft international standard', 'automotive_design', 1998, #70 ) ;
#174 = CARTESIAN_POINT ( 'NONE',  ( 2538.373157710037958, -224.9176971297049761, 0.000000000000000000 ) ) ;
#175 = LINE ( 'NONE', #24, #60 ) ;
#176 = ORIENTED_EDGE ( 'NONE', *, *, #10, .T. ) ;
#177 = EDGE_CURVE ( 'NONE', #11, #4, #54, .T. ) ;
#178 = SHAPE_DEFINITION_REPRESENTATION ( #171, #21 ) ;
#179 = EDGE_LOOP ( 'NONE', ( #50, #69 ) ) ;
#180 = PRODUCT_DEFINITION_FORMATION_WITH_SPECIFIED_SOURCE ( 'ÈÎºÎ', '', #172, .NOT_KNOWN. ) ;
#181 = DIRECTION ( 'NONE',  ( -1.000000000000000000, -0.000000000000000000, -0.000000000000000000 ) ) ;
#182 = AXIS2_PLACEMENT_3D ( 'NONE', #8, #125, #14 ) ;
#183 = CYLINDRICAL_SURFACE ( 'NONE', #185, 18.99999986945273633 ) ;
#184 = SURFACE_SIDE_STYLE ('',( #85 ) ) ;
#185 = AXIS2_PLACEMENT_3D ( 'NONE', #58, #110, #163 ) ;
#186 = CARTESIAN_POINT ( 'NONE',  ( 2561.090795710038037, -224.9176971297049761, 0.000000000000000000 ) ) ;
ENDSEC;
END-ISO-10303-21;
