ISO-10303-21;
HEADER;
FILE_DESCRIPTION (( 'STEP AP214' ),
    '1' );
FILE_NAME ('130078.STEP',
    '2019-07-03T05:48:07',
    ( '' ),
    ( '' ),
    'SwSTEP 2.0',
    'SolidWorks 2016',
    '' );
FILE_SCHEMA (( 'AUTOMOTIVE_DESIGN' ));
ENDSEC;

DATA;
#1 = ADVANCED_FACE ( 'NONE', ( #69 ), #17, .T. ) ;
#2 = DIRECTION ( 'NONE',  ( 0.0000000000000000000, -1.000000000000000000, 0.0000000000000000000 ) ) ;
#3 = AXIS2_PLACEMENT_3D ( 'NONE', #75, #60, #119 ) ;
#4 = EDGE_CURVE ( 'NONE', #8, #113, #74, .T. ) ;
#5 = TOROIDAL_SURFACE ( 'NONE', #127, 0.6996547534850075000, 71.80000000000001100 ) ;
#6 = DIRECTION ( 'NONE',  ( 4.877362175853829600E-016, -1.000000000000000000, 0.0000000000000000000 ) ) ;
#7 = CARTESIAN_POINT ( 'NONE',  ( 98.09698121773801900, 52.17808229838991700, 0.0000000000000000000 ) ) ;
#8 = VERTEX_POINT ( 'NONE', #96 ) ;
#9 = CARTESIAN_POINT ( 'NONE',  ( 168.8870349962487900, 52.87773705187495900, 8.568299543636449600E-017 ) ) ;
#10 = DIRECTION ( 'NONE',  ( 5.973045976941762700E-032, -1.224646799147353200E-016, 1.000000000000000000 ) ) ;
#11 = DIRECTION ( 'NONE',  ( 0.0000000000000000000, 0.0000000000000000000, 1.000000000000000000 ) ) ;
#12 = ORIENTED_EDGE ( 'NONE', *, *, #30, .F. ) ;
#13 = SURFACE_SIDE_STYLE ('',( #155 ) ) ;
#14 = COLOUR_RGB ( '',1.000000000000000000, 1.000000000000000000, 1.000000000000000000 ) ;
#15 = AXIS2_PLACEMENT_3D ( 'NONE', #115, #133, #83 ) ;
#16 = CIRCLE ( 'NONE', #158, 71.80000000000001100 ) ;
#17 = CYLINDRICAL_SURFACE ( 'NONE', #88, 12.69999999999999600 ) ;
#18 = EDGE_LOOP ( 'NONE', ( #168, #53, #143, #151 ) ) ;
#19 = DIRECTION ( 'NONE',  ( 0.0000000000000000000, -1.000000000000000000, 0.0000000000000000000 ) ) ;
#20 = DIRECTION ( 'NONE',  ( -1.000000000000000000, -4.877362175853829600E-016, -0.0000000000000000000 ) ) ;
#21 = ORIENTED_EDGE ( 'NONE', *, *, #104, .F. ) ;
#22 = DIRECTION ( 'NONE',  ( 0.0000000000000000000, 0.0000000000000000000, -1.000000000000000000 ) ) ;
#23 = ORIENTED_EDGE ( 'NONE', *, *, #130, .F. ) ;
#24 = DIRECTION ( 'NONE',  ( -1.000000000000000000, -4.877362175853829600E-016, -0.0000000000000000000 ) ) ;
#25 =( GEOMETRIC_REPRESENTATION_CONTEXT ( 3 ) GLOBAL_UNCERTAINTY_ASSIGNED_CONTEXT ( ( #161 ) ) GLOBAL_UNIT_ASSIGNED_CONTEXT ( ( #103, #154, #175 ) ) REPRESENTATION_CONTEXT ( 'NONE', 'WORKASPACE' ) );
#26 = CARTESIAN_POINT ( 'NONE',  ( 23.29385294047113300, 52.87773705187494500, 8.568299543637149700E-017 ) ) ;
#27 = FILL_AREA_STYLE_COLOUR ( '', #29 ) ;
#28 = DIRECTION ( 'NONE',  ( -1.000000000000000000, 0.0000000000000000000, 0.0000000000000000000 ) ) ;
#29 = COLOUR_RGB ( '',1.000000000000000000, 1.000000000000000000, 1.000000000000000000 ) ;
#30 = EDGE_CURVE ( 'NONE', #179, #78, #192, .T. ) ;
#31 =( NAMED_UNIT ( * ) PLANE_ANGLE_UNIT ( ) SI_UNIT ( $, .RADIAN. ) );
#32 = VERTEX_POINT ( 'NONE', #174 ) ;
#33 = ADVANCED_FACE ( 'NONE', ( #97 ), #102, .F. ) ;
#34 = ADVANCED_FACE ( 'NONE', ( #63 ), #5, .F. ) ;
#35 = CARTESIAN_POINT ( 'NONE',  ( 23.29385294047113300, 51.47842754490481100, 0.0000000000000000000 ) ) ;
#36 = CARTESIAN_POINT ( 'NONE',  ( 89.85865645361708700, 52.17808229838991000, 0.0000000000000000000 ) ) ;
#37 = MANIFOLD_SOLID_BREP ( 'Ðý×ª1', #129 ) ;
#38 = AXIS2_PLACEMENT_3D ( 'NONE', #7, #153, #134 ) ;
#39 = EDGE_CURVE ( 'NONE', #8, #67, #107, .T. ) ;
#40 = DIRECTION ( 'NONE',  ( 0.0000000000000000000, 0.0000000000000000000, -1.000000000000000000 ) ) ;
#41 = LINE ( 'NONE', #117, #137 ) ;
#42 = SURFACE_SIDE_STYLE ('',( #141 ) ) ;
#43 = ORIENTED_EDGE ( 'NONE', *, *, #147, .F. ) ;
#44 =( LENGTH_UNIT ( ) NAMED_UNIT ( * ) SI_UNIT ( .MILLI., .METRE. ) );
#45 = SURFACE_STYLE_USAGE ( .BOTH. , #42 ) ;
#46 = DIRECTION ( 'NONE',  ( 5.973045976941762700E-032, -1.224646799147353200E-016, 1.000000000000000000 ) ) ;
#47 = AXIS2_PLACEMENT_3D ( 'NONE', #26, #10, #106 ) ;
#48 = CARTESIAN_POINT ( 'NONE',  ( 98.09698121773801900, 64.87808229838989900, 1.555301434917137800E-015 ) ) ;
#49 = UNCERTAINTY_MEASURE_WITH_UNIT (LENGTH_MEASURE( 1.000000000000000100E-005 ), #182, 'distance_accuracy_value', 'NONE');
#50 = PRODUCT_DEFINITION_CONTEXT ( 'detailed design', #139, 'design' ) ;
#51 = FACE_OUTER_BOUND ( 'NONE', #82, .T. ) ;
#52 = TOROIDAL_SURFACE ( 'NONE', #109, 0.6996547534850646700, 71.79999999999999700 ) ;
#53 = ORIENTED_EDGE ( 'NONE', *, *, #126, .T. ) ;
#54 = CARTESIAN_POINT ( 'NONE',  ( 98.09698121773801900, 52.17808229838991700, 0.0000000000000000000 ) ) ;
#55 = DIRECTION ( 'NONE',  ( -1.000000000000000000, -4.877362175853829600E-016, -0.0000000000000000000 ) ) ;
#56 = FACE_OUTER_BOUND ( 'NONE', #142, .T. ) ;
#57 = EDGE_LOOP ( 'NONE', ( #21, #170, #166 ) ) ;
#58 = FILL_AREA_STYLE_COLOUR ( '', #14 ) ;
#59 = CARTESIAN_POINT ( 'NONE',  ( 89.85865645361708700, 64.87808229838989900, 1.555301434917138000E-015 ) ) ;
#60 = DIRECTION ( 'NONE',  ( -1.000000000000000000, -4.877362175853829600E-016, -0.0000000000000000000 ) ) ;
#61 = CARTESIAN_POINT ( 'NONE',  ( 168.8870349962487900, 51.47842754490494600, 0.0000000000000000000 ) ) ;
#62 = APPLICATION_CONTEXT ( 'automotive_design' ) ;
#63 = FACE_OUTER_BOUND ( 'NONE', #185, .T. ) ;
#64 = DIRECTION ( 'NONE',  ( 1.000000000000000000, 0.0000000000000000000, 0.0000000000000000000 ) ) ;
#65 = PRODUCT_RELATED_PRODUCT_CATEGORY ( 'part', '', ( #188 ) ) ;
#66 = PRESENTATION_STYLE_ASSIGNMENT (( #124 ) ) ;
#67 = VERTEX_POINT ( 'NONE', #84 ) ;
#68 = ADVANCED_FACE ( 'NONE', ( #51 ), #91, .T. ) ;
#69 = FACE_OUTER_BOUND ( 'NONE', #18, .T. ) ;
#70 = DIRECTION ( 'NONE',  ( -1.000000000000000000, -4.877362175853829600E-016, -0.0000000000000000000 ) ) ;
#71 = AXIS2_PLACEMENT_3D ( 'NONE', #54, #55, #2 ) ;
#72 =( GEOMETRIC_REPRESENTATION_CONTEXT ( 3 ) GLOBAL_UNCERTAINTY_ASSIGNED_CONTEXT ( ( #144 ) ) GLOBAL_UNIT_ASSIGNED_CONTEXT ( ( #44, #118, #181 ) ) REPRESENTATION_CONTEXT ( 'NONE', 'WORKASPACE' ) );
#73 = CIRCLE ( 'NONE', #47, 71.79999999999999700 ) ;
#74 = CIRCLE ( 'NONE', #71, 12.69999999999999600 ) ;
#75 = CARTESIAN_POINT ( 'NONE',  ( 168.8870349962487900, 52.17808229838995300, 0.0000000000000000000 ) ) ;
#76 = CARTESIAN_POINT ( 'NONE',  ( 0.0000000000000000000, 0.0000000000000000000, 0.0000000000000000000 ) ) ;
#77 = DIRECTION ( 'NONE',  ( 0.0000000000000000000, -1.000000000000000000, 0.0000000000000000000 ) ) ;
#78 = VERTEX_POINT ( 'NONE', #135 ) ;
#79 = PRESENTATION_LAYER_ASSIGNMENT (  '', '', ( #87 ) ) ;
#80 = ORIENTED_EDGE ( 'NONE', *, *, #39, .T. ) ;
#81 = CARTESIAN_POINT ( 'NONE',  ( 23.29385294047113300, 52.17808229838987400, 0.0000000000000000000 ) ) ;
#82 = EDGE_LOOP ( 'NONE', ( #132, #183, #23, #43 ) ) ;
#83 = DIRECTION ( 'NONE',  ( 0.0000000000000000000, -1.000000000000000000, 0.0000000000000000000 ) ) ;
#84 = CARTESIAN_POINT ( 'NONE',  ( 97.09044396835996300, 52.17808229838991700, 0.0000000000000000000 ) ) ;
#85 = ORIENTED_EDGE ( 'NONE', *, *, #180, .T. ) ;
#86 = CARTESIAN_POINT ( 'NONE',  ( 23.29385294047113300, 52.17808229838987400, 0.0000000000000000000 ) ) ;
#87 = STYLED_ITEM ( 'NONE', ( #66 ), #184 ) ;
#88 = AXIS2_PLACEMENT_3D ( 'NONE', #36, #70, #19 ) ;
#89 = EDGE_LOOP ( 'NONE', ( #12, #176, #172 ) ) ;
#90 = APPLICATION_PROTOCOL_DEFINITION ( 'draft international standard', 'automotive_design', 1998, #139 ) ;
#91 = CYLINDRICAL_SURFACE ( 'NONE', #146, 12.69999999999999600 ) ;
#92 = PRESENTATION_STYLE_ASSIGNMENT (( #45 ) ) ;
#93 = PRODUCT_DEFINITION_SHAPE ( 'NONE', 'NONE',  #125 ) ;
#94 = EDGE_CURVE ( 'NONE', #113, #32, #178, .T. ) ;
#95 = ORIENTED_EDGE ( 'NONE', *, *, #126, .F. ) ;
#96 = CARTESIAN_POINT ( 'NONE',  ( 98.09698121773801900, 39.47808229838992100, 0.0000000000000000000 ) ) ;
#97 = FACE_OUTER_BOUND ( 'NONE', #57, .T. ) ;
#98 = AXIS2_PLACEMENT_3D ( 'NONE', #35, #40, #145 ) ;
#99 = DIRECTION ( 'NONE',  ( -1.000000000000000000, -4.877362175853829600E-016, -0.0000000000000000000 ) ) ;
#100 = MECHANICAL_DESIGN_GEOMETRIC_PRESENTATION_REPRESENTATION (  '', ( #87 ), #136 ) ;
#101 = DIRECTION ( 'NONE',  ( 0.0000000000000000000, -1.000000000000000000, 0.0000000000000000000 ) ) ;
#102 = TOROIDAL_SURFACE ( 'NONE', #171, 0.6996547534850646700, 71.79999999999999700 ) ;
#103 =( LENGTH_UNIT ( ) NAMED_UNIT ( * ) SI_UNIT ( .MILLI., .METRE. ) );
#104 = EDGE_CURVE ( 'NONE', #179, #32, #73, .T. ) ;
#105 = VECTOR ( 'NONE', #189, 1000.000000000000000 ) ;
#106 = DIRECTION ( 'NONE',  ( 0.0000000000000000000, -1.000000000000000000, -1.224646799147353500E-016 ) ) ;
#107 = CIRCLE ( 'NONE', #111, 71.80000000000001100 ) ;
#108 = FILL_AREA_STYLE ('',( #27 ) ) ;
#109 = AXIS2_PLACEMENT_3D ( 'NONE', #86, #190, #131 ) ;
#110 = ADVANCED_FACE ( 'NONE', ( #187 ), #52, .F. ) ;
#111 = AXIS2_PLACEMENT_3D ( 'NONE', #61, #22, #28 ) ;
#112 = AXIS2_PLACEMENT_3D ( 'NONE', #177, #121, #101 ) ;
#113 = VERTEX_POINT ( 'NONE', #48 ) ;
#114 = ADVANCED_FACE ( 'NONE', ( #56 ), #149, .F. ) ;
#115 = CARTESIAN_POINT ( 'NONE',  ( 94.08390671898189300, 52.17808229838991000, 0.0000000000000000000 ) ) ;
#116 = EDGE_CURVE ( 'NONE', #32, #78, #156, .T. ) ;
#117 = CARTESIAN_POINT ( 'NONE',  ( 89.85865645361708700, 39.47808229838991400, 0.0000000000000000000 ) ) ;
#118 =( NAMED_UNIT ( * ) PLANE_ANGLE_UNIT ( ) SI_UNIT ( $, .RADIAN. ) );
#119 = DIRECTION ( 'NONE',  ( 4.877362175853829600E-016, -1.000000000000000000, 0.0000000000000000000 ) ) ;
#120 = CIRCLE ( 'NONE', #38, 12.69999999999999600 ) ;
#121 = DIRECTION ( 'NONE',  ( -1.000000000000000000, -4.877362175853829600E-016, -0.0000000000000000000 ) ) ;
#122 = APPLICATION_PROTOCOL_DEFINITION ( 'draft international standard', 'automotive_design', 1998, #62 ) ;
#123 = CIRCLE ( 'NONE', #112, 12.69999999999998900 ) ;
#124 = SURFACE_STYLE_USAGE ( .BOTH. , #13 ) ;
#125 = PRODUCT_DEFINITION ( 'Î´Öª', '', #169, #50 ) ;
#126 = EDGE_CURVE ( 'NONE', #113, #8, #120, .T. ) ;
#127 = AXIS2_PLACEMENT_3D ( 'NONE', #162, #99, #6 ) ;
#128 = ORIENTED_EDGE ( 'NONE', *, *, #39, .F. ) ;
#129 = CLOSED_SHELL ( 'NONE', ( #110, #68, #114, #34, #1, #33 ) ) ;
#130 = EDGE_CURVE ( 'NONE', #78, #32, #123, .T. ) ;
#131 = DIRECTION ( 'NONE',  ( 4.877362175853829600E-016, -1.000000000000000000, 0.0000000000000000000 ) ) ;
#132 = ORIENTED_EDGE ( 'NONE', *, *, #4, .T. ) ;
#133 = DIRECTION ( 'NONE',  ( -1.000000000000000000, -4.877362175853829600E-016, -0.0000000000000000000 ) ) ;
#134 = DIRECTION ( 'NONE',  ( 0.0000000000000000000, -1.000000000000000000, 0.0000000000000000000 ) ) ;
#135 = CARTESIAN_POINT ( 'NONE',  ( 94.08390671898189300, 39.47808229838992100, 0.0000000000000000000 ) ) ;
#136 =( GEOMETRIC_REPRESENTATION_CONTEXT ( 3 ) GLOBAL_UNCERTAINTY_ASSIGNED_CONTEXT ( ( #49 ) ) GLOBAL_UNIT_ASSIGNED_CONTEXT ( ( #182, #31, #138 ) ) REPRESENTATION_CONTEXT ( 'NONE', 'WORKASPACE' ) );
#137 = VECTOR ( 'NONE', #24, 1000.000000000000000 ) ;
#138 =( NAMED_UNIT ( * ) SI_UNIT ( $, .STERADIAN. ) SOLID_ANGLE_UNIT ( ) );
#139 = APPLICATION_CONTEXT ( 'automotive_design' ) ;
#140 = STYLED_ITEM ( 'NONE', ( #92 ), #37 ) ;
#141 = SURFACE_STYLE_FILL_AREA ( #148 ) ;
#142 = EDGE_LOOP ( 'NONE', ( #95, #85, #128 ) ) ;
#143 = ORIENTED_EDGE ( 'NONE', *, *, #147, .T. ) ;
#144 = UNCERTAINTY_MEASURE_WITH_UNIT (LENGTH_MEASURE( 1.000000000000000100E-005 ), #44, 'distance_accuracy_value', 'NONE');
#145 = DIRECTION ( 'NONE',  ( -1.000000000000000000, 0.0000000000000000000, 0.0000000000000000000 ) ) ;
#146 = AXIS2_PLACEMENT_3D ( 'NONE', #150, #165, #77 ) ;
#147 = EDGE_CURVE ( 'NONE', #8, #78, #41, .T. ) ;
#148 = FILL_AREA_STYLE ('',( #58 ) ) ;
#149 = TOROIDAL_SURFACE ( 'NONE', #3, 0.6996547534850075000, 71.80000000000001100 ) ;
#150 = CARTESIAN_POINT ( 'NONE',  ( 89.85865645361708700, 52.17808229838991000, 0.0000000000000000000 ) ) ;
#151 = ORIENTED_EDGE ( 'NONE', *, *, #116, .F. ) ;
#152 = PRESENTATION_LAYER_ASSIGNMENT (  '', '', ( #140 ) ) ;
#153 = DIRECTION ( 'NONE',  ( -1.000000000000000000, -4.877362175853829600E-016, -0.0000000000000000000 ) ) ;
#154 =( NAMED_UNIT ( * ) PLANE_ANGLE_UNIT ( ) SI_UNIT ( $, .RADIAN. ) );
#155 = SURFACE_STYLE_FILL_AREA ( #108 ) ;
#156 = CIRCLE ( 'NONE', #15, 12.69999999999998900 ) ;
#157 = SHAPE_DEFINITION_REPRESENTATION ( #93, #184 ) ;
#158 = AXIS2_PLACEMENT_3D ( 'NONE', #9, #46, #191 ) ;
#159 = ORIENTED_EDGE ( 'NONE', *, *, #180, .F. ) ;
#160 = MECHANICAL_DESIGN_GEOMETRIC_PRESENTATION_REPRESENTATION (  '', ( #140 ), #25 ) ;
#161 = UNCERTAINTY_MEASURE_WITH_UNIT (LENGTH_MEASURE( 1.000000000000000100E-005 ), #103, 'distance_accuracy_value', 'NONE');
#162 = CARTESIAN_POINT ( 'NONE',  ( 168.8870349962487900, 52.17808229838995300, 0.0000000000000000000 ) ) ;
#163 = ORIENTED_EDGE ( 'NONE', *, *, #4, .F. ) ;
#164 = CARTESIAN_POINT ( 'NONE',  ( 95.09044396835996300, 52.17808229838991000, 0.0000000000000000000 ) ) ;
#165 = DIRECTION ( 'NONE',  ( -1.000000000000000000, -4.877362175853829600E-016, -0.0000000000000000000 ) ) ;
#166 = ORIENTED_EDGE ( 'NONE', *, *, #130, .T. ) ;
#167 = PRODUCT_CONTEXT ( 'NONE', #62, 'mechanical' ) ;
#168 = ORIENTED_EDGE ( 'NONE', *, *, #94, .F. ) ;
#169 = PRODUCT_DEFINITION_FORMATION_WITH_SPECIFIED_SOURCE ( 'ÈÎºÎ', '', #188, .NOT_KNOWN. ) ;
#170 = ORIENTED_EDGE ( 'NONE', *, *, #30, .T. ) ;
#171 = AXIS2_PLACEMENT_3D ( 'NONE', #81, #20, #186 ) ;
#172 = ORIENTED_EDGE ( 'NONE', *, *, #116, .T. ) ;
#173 = AXIS2_PLACEMENT_3D ( 'NONE', #76, #11, #64 ) ;
#174 = CARTESIAN_POINT ( 'NONE',  ( 94.08390671898189300, 64.87808229838989900, 1.555301434917138000E-015 ) ) ;
#175 =( NAMED_UNIT ( * ) SI_UNIT ( $, .STERADIAN. ) SOLID_ANGLE_UNIT ( ) );
#176 = ORIENTED_EDGE ( 'NONE', *, *, #104, .T. ) ;
#177 = CARTESIAN_POINT ( 'NONE',  ( 94.08390671898189300, 52.17808229838991000, 0.0000000000000000000 ) ) ;
#178 = LINE ( 'NONE', #59, #105 ) ;
#179 = VERTEX_POINT ( 'NONE', #164 ) ;
#180 = EDGE_CURVE ( 'NONE', #113, #67, #16, .T. ) ;
#181 =( NAMED_UNIT ( * ) SI_UNIT ( $, .STERADIAN. ) SOLID_ANGLE_UNIT ( ) );
#182 =( LENGTH_UNIT ( ) NAMED_UNIT ( * ) SI_UNIT ( .MILLI., .METRE. ) );
#183 = ORIENTED_EDGE ( 'NONE', *, *, #94, .T. ) ;
#184 = ADVANCED_BREP_SHAPE_REPRESENTATION ( '130078', ( #37, #173 ), #72 ) ;
#185 = EDGE_LOOP ( 'NONE', ( #159, #163, #80 ) ) ;
#186 = DIRECTION ( 'NONE',  ( 4.877362175853829600E-016, -1.000000000000000000, 0.0000000000000000000 ) ) ;
#187 = FACE_OUTER_BOUND ( 'NONE', #89, .T. ) ;
#188 = PRODUCT ( '130078', '130078', '', ( #167 ) ) ;
#189 = DIRECTION ( 'NONE',  ( -1.000000000000000000, -4.877362175853829600E-016, -0.0000000000000000000 ) ) ;
#190 = DIRECTION ( 'NONE',  ( -1.000000000000000000, -4.877362175853829600E-016, -0.0000000000000000000 ) ) ;
#191 = DIRECTION ( 'NONE',  ( 0.0000000000000000000, -1.000000000000000000, -1.224646799147353200E-016 ) ) ;
#192 = CIRCLE ( 'NONE', #98, 71.79999999999999700 ) ;
ENDSEC;
END-ISO-10303-21;
