ISO-10303-21;
HEADER;
FILE_DESCRIPTION (( 'STEP AP214' ),
    '1' );
FILE_NAME ('130080.STEP',
    '2019-07-03T06:04:25',
    ( '' ),
    ( '' ),
    'SwSTEP 2.0',
    'SolidWorks 2016',
    '' );
FILE_SCHEMA (( 'AUTOMOTIVE_DESIGN' ));
ENDSEC;

DATA;
#1 = DIRECTION ( 'NONE',  ( 0.0000000000000000000, -1.000000000000000000, 0.0000000000000000000 ) ) ;
#2 =( NAMED_UNIT ( * ) PLANE_ANGLE_UNIT ( ) SI_UNIT ( $, .RADIAN. ) );
#3 =( LENGTH_UNIT ( ) NAMED_UNIT ( * ) SI_UNIT ( .MILLI., .METRE. ) );
#4 = DIRECTION ( 'NONE',  ( -1.000000000000000000, -4.877362175853829600E-016, -0.0000000000000000000 ) ) ;
#5 = EDGE_CURVE ( 'NONE', #160, #145, #9, .T. ) ;
#6 = AXIS2_PLACEMENT_3D ( 'NONE', #50, #53, #152 ) ;
#7 = AXIS2_PLACEMENT_3D ( 'NONE', #150, #4, #136 ) ;
#8 = CYLINDRICAL_SURFACE ( 'NONE', #115, 12.70000000000004500 ) ;
#9 = LINE ( 'NONE', #49, #57 ) ;
#10 = EDGE_CURVE ( 'NONE', #32, #145, #126, .T. ) ;
#11 = EDGE_CURVE ( 'NONE', #191, #160, #169, .T. ) ;
#12 = CIRCLE ( 'NONE', #88, 211.0000000000001400 ) ;
#13 = UNCERTAINTY_MEASURE_WITH_UNIT (LENGTH_MEASURE( 1.000000000000000100E-005 ), #23, 'distance_accuracy_value', 'NONE');
#14 = CARTESIAN_POINT ( 'NONE',  ( 94.72057220113372000, 64.87808229838999800, 1.555301434917148900E-015 ) ) ;
#15 = MECHANICAL_DESIGN_GEOMETRIC_PRESENTATION_REPRESENTATION (  '', ( #127 ), #59 ) ;
#16 = DIRECTION ( 'NONE',  ( 0.0000000000000000000, -1.000000000000000000, -1.224646799147353200E-016 ) ) ;
#17 = DIRECTION ( 'NONE',  ( 4.877362175853829600E-016, -1.000000000000000000, 0.0000000000000000000 ) ) ;
#18 = CARTESIAN_POINT ( 'NONE',  ( 94.72057220113372000, 52.17808229838991000, 0.0000000000000000000 ) ) ;
#19 = DIRECTION ( 'NONE',  ( -1.000000000000000000, -4.877362175853829600E-016, -0.0000000000000000000 ) ) ;
#20 = PRESENTATION_LAYER_ASSIGNMENT (  '', '', ( #127 ) ) ;
#21 = CIRCLE ( 'NONE', #27, 12.69999999999999600 ) ;
#22 = EDGE_CURVE ( 'NONE', #160, #191, #21, .T. ) ;
#23 =( LENGTH_UNIT ( ) NAMED_UNIT ( * ) SI_UNIT ( .MILLI., .METRE. ) );
#24 = ADVANCED_FACE ( 'NONE', ( #130 ), #51, .T. ) ;
#25 = STYLED_ITEM ( 'NONE', ( #144 ), #38 ) ;
#26 = ORIENTED_EDGE ( 'NONE', *, *, #29, .T. ) ;
#27 = AXIS2_PLACEMENT_3D ( 'NONE', #178, #89, #48 ) ;
#28 = EDGE_LOOP ( 'NONE', ( #111, #189, #141 ) ) ;
#29 = EDGE_CURVE ( 'NONE', #70, #32, #159, .T. ) ;
#30 = CARTESIAN_POINT ( 'NONE',  ( 94.72057220113372000, 52.17808229838991000, 0.0000000000000000000 ) ) ;
#31 = DIRECTION ( 'NONE',  ( 4.877362175853829600E-016, -1.000000000000000000, 0.0000000000000000000 ) ) ;
#32 = VERTEX_POINT ( 'NONE', #14 ) ;
#33 = DIRECTION ( 'NONE',  ( 0.0000000000000000000, -1.000000000000000000, 0.0000000000000000000 ) ) ;
#34 = CARTESIAN_POINT ( 'NONE',  ( 97.46031573558609300, 39.47808229838959400, 0.0000000000000000000 ) ) ;
#35 = SURFACE_SIDE_STYLE ('',( #118 ) ) ;
#36 = PRODUCT_DEFINITION_FORMATION_WITH_SPECIFIED_SOURCE ( 'ÈÎºÎ', '', #186, .NOT_KNOWN. ) ;
#37 = ORIENTED_EDGE ( 'NONE', *, *, #5, .F. ) ;
#38 = ADVANCED_BREP_SHAPE_REPRESENTATION ( '130080', ( #173, #6 ), #86 ) ;
#39 = ADVANCED_FACE ( 'NONE', ( #120 ), #154, .F. ) ;
#40 = AXIS2_PLACEMENT_3D ( 'NONE', #125, #184, #52 ) ;
#41 = VERTEX_POINT ( 'NONE', #132 ) ;
#42 = EDGE_CURVE ( 'NONE', #191, #41, #12, .T. ) ;
#43 = ORIENTED_EDGE ( 'NONE', *, *, #174, .T. ) ;
#44 = EDGE_CURVE ( 'NONE', #145, #32, #172, .T. ) ;
#45 = PRODUCT_RELATED_PRODUCT_CATEGORY ( 'part', '', ( #186 ) ) ;
#46 = COLOUR_RGB ( '',1.000000000000000000, 1.000000000000000000, 1.000000000000000000 ) ;
#47 = AXIS2_PLACEMENT_3D ( 'NONE', #171, #179, #31 ) ;
#48 = DIRECTION ( 'NONE',  ( 0.0000000000000000000, -1.000000000000000000, 0.0000000000000000000 ) ) ;
#49 = CARTESIAN_POINT ( 'NONE',  ( 89.85865645361708700, 39.47808229838986400, 0.0000000000000000000 ) ) ;
#50 = CARTESIAN_POINT ( 'NONE',  ( 0.0000000000000000000, 0.0000000000000000000, 0.0000000000000000000 ) ) ;
#51 = CYLINDRICAL_SURFACE ( 'NONE', #176, 12.70000000000004500 ) ;
#52 = DIRECTION ( 'NONE',  ( -1.000000000000000000, 0.0000000000000000000, 0.0000000000000000000 ) ) ;
#53 = DIRECTION ( 'NONE',  ( 0.0000000000000000000, 0.0000000000000000000, 1.000000000000000000 ) ) ;
#54 = ORIENTED_EDGE ( 'NONE', *, *, #22, .T. ) ;
#55 =( NAMED_UNIT ( * ) SI_UNIT ( $, .STERADIAN. ) SOLID_ANGLE_UNIT ( ) );
#56 = UNCERTAINTY_MEASURE_WITH_UNIT (LENGTH_MEASURE( 1.000000000000000100E-005 ), #3, 'distance_accuracy_value', 'NONE');
#57 = VECTOR ( 'NONE', #147, 1000.000000000000000 ) ;
#58 = VECTOR ( 'NONE', #183, 1000.000000000000000 ) ;
#59 =( GEOMETRIC_REPRESENTATION_CONTEXT ( 3 ) GLOBAL_UNCERTAINTY_ASSIGNED_CONTEXT ( ( #114 ) ) GLOBAL_UNIT_ASSIGNED_CONTEXT ( ( #66, #2, #135 ) ) REPRESENTATION_CONTEXT ( 'NONE', 'WORKASPACE' ) );
#60 = AXIS2_PLACEMENT_3D ( 'NONE', #177, #102, #116 ) ;
#61 = DIRECTION ( 'NONE',  ( -1.000000000000000000, -4.877362175853829600E-016, -0.0000000000000000000 ) ) ;
#62 = APPLICATION_CONTEXT ( 'automotive_design' ) ;
#63 = TOROIDAL_SURFACE ( 'NONE', #74, 0.2102754670341965000, 211.0000000000001400 ) ;
#64 = DIRECTION ( 'NONE',  ( 5.973045976941762700E-032, -1.224646799147353200E-016, 1.000000000000000000 ) ) ;
#65 = SURFACE_STYLE_FILL_AREA ( #105 ) ;
#66 =( LENGTH_UNIT ( ) NAMED_UNIT ( * ) SI_UNIT ( .MILLI., .METRE. ) );
#67 = AXIS2_PLACEMENT_3D ( 'NONE', #30, #61, #33 ) ;
#68 = ADVANCED_FACE ( 'NONE', ( #157 ), #8, .T. ) ;
#69 = ORIENTED_EDGE ( 'NONE', *, *, #10, .T. ) ;
#70 = VERTEX_POINT ( 'NONE', #122 ) ;
#71 = PRODUCT_DEFINITION_SHAPE ( 'NONE', 'NONE',  #187 ) ;
#72 = ORIENTED_EDGE ( 'NONE', *, *, #44, .F. ) ;
#73 = DIRECTION ( 'NONE',  ( -1.000000000000000000, -4.877362175853829600E-016, -0.0000000000000000000 ) ) ;
#74 = AXIS2_PLACEMENT_3D ( 'NONE', #91, #109, #17 ) ;
#75 = CARTESIAN_POINT ( 'NONE',  ( 89.85865645361708700, 52.17808229838991000, 0.0000000000000000000 ) ) ;
#76 = EDGE_LOOP ( 'NONE', ( #54, #112, #72, #37 ) ) ;
#77 = DIRECTION ( 'NONE',  ( 0.0000000000000000000, -1.000000000000000000, 0.0000000000000000000 ) ) ;
#78 = APPLICATION_CONTEXT ( 'automotive_design' ) ;
#79 = ORIENTED_EDGE ( 'NONE', *, *, #10, .F. ) ;
#80 = AXIS2_PLACEMENT_3D ( 'NONE', #18, #19, #77 ) ;
#81 =( NAMED_UNIT ( * ) PLANE_ANGLE_UNIT ( ) SI_UNIT ( $, .RADIAN. ) );
#82 = SURFACE_STYLE_USAGE ( .BOTH. , #35 ) ;
#83 = TOROIDAL_SURFACE ( 'NONE', #47, 0.2102754670338828900, 210.9999999999999700 ) ;
#84 = ORIENTED_EDGE ( 'NONE', *, *, #22, .F. ) ;
#85 = EDGE_CURVE ( 'NONE', #70, #145, #168, .T. ) ;
#86 =( GEOMETRIC_REPRESENTATION_CONTEXT ( 3 ) GLOBAL_UNCERTAINTY_ASSIGNED_CONTEXT ( ( #56 ) ) GLOBAL_UNIT_ASSIGNED_CONTEXT ( ( #3, #81, #139 ) ) REPRESENTATION_CONTEXT ( 'NONE', 'WORKASPACE' ) );
#87 = EDGE_LOOP ( 'NONE', ( #101, #26, #69 ) ) ;
#88 = AXIS2_PLACEMENT_3D ( 'NONE', #192, #99, #16 ) ;
#89 = DIRECTION ( 'NONE',  ( -1.000000000000000000, -4.877362175853829600E-016, -0.0000000000000000000 ) ) ;
#90 = DIRECTION ( 'NONE',  ( -1.000000000000000000, -4.877362175853829600E-016, -0.0000000000000000000 ) ) ;
#91 = CARTESIAN_POINT ( 'NONE',  ( 308.0903391916230600, 52.17808229839001700, 0.0000000000000000000 ) ) ;
#92 = EDGE_CURVE ( 'NONE', #191, #32, #164, .T. ) ;
#93 = FILL_AREA_STYLE_COLOUR ( '', #46 ) ;
#94 = AXIS2_PLACEMENT_3D ( 'NONE', #162, #90, #182 ) ;
#95 = ADVANCED_FACE ( 'NONE', ( #155 ), #158, .F. ) ;
#96 = PRESENTATION_LAYER_ASSIGNMENT (  '', '', ( #25 ) ) ;
#97 = CLOSED_SHELL ( 'NONE', ( #95, #68, #39, #108, #24, #170 ) ) ;
#98 = EDGE_LOOP ( 'NONE', ( #113, #84, #43 ) ) ;
#99 = DIRECTION ( 'NONE',  ( 5.973045976941762700E-032, -1.224646799147353200E-016, 1.000000000000000000 ) ) ;
#100 = CARTESIAN_POINT ( 'NONE',  ( 89.85865645361708700, 52.17808229838991000, 0.0000000000000000000 ) ) ;
#101 = ORIENTED_EDGE ( 'NONE', *, *, #85, .F. ) ;
#102 = DIRECTION ( 'NONE',  ( -1.000000000000000000, -4.877362175853829600E-016, -0.0000000000000000000 ) ) ;
#103 = SURFACE_STYLE_USAGE ( .BOTH. , #106 ) ;
#104 = DIRECTION ( 'NONE',  ( 0.0000000000000000000, 0.0000000000000000000, -1.000000000000000000 ) ) ;
#105 = FILL_AREA_STYLE ('',( #134 ) ) ;
#106 = SURFACE_SIDE_STYLE ('',( #65 ) ) ;
#107 = MECHANICAL_DESIGN_GEOMETRIC_PRESENTATION_REPRESENTATION (  '', ( #25 ), #129 ) ;
#108 = ADVANCED_FACE ( 'NONE', ( #180 ), #63, .F. ) ;
#109 = DIRECTION ( 'NONE',  ( -1.000000000000000000, -4.877362175853829600E-016, -0.0000000000000000000 ) ) ;
#110 = ORIENTED_EDGE ( 'NONE', *, *, #29, .F. ) ;
#111 = ORIENTED_EDGE ( 'NONE', *, *, #11, .F. ) ;
#112 = ORIENTED_EDGE ( 'NONE', *, *, #92, .T. ) ;
#113 = ORIENTED_EDGE ( 'NONE', *, *, #42, .F. ) ;
#114 = UNCERTAINTY_MEASURE_WITH_UNIT (LENGTH_MEASURE( 1.000000000000000100E-005 ), #66, 'distance_accuracy_value', 'NONE');
#115 = AXIS2_PLACEMENT_3D ( 'NONE', #75, #133, #1 ) ;
#116 = DIRECTION ( 'NONE',  ( 4.877362175853829600E-016, -1.000000000000000000, 0.0000000000000000000 ) ) ;
#117 = DIRECTION ( 'NONE',  ( 0.0000000000000000000, -1.000000000000000000, 0.0000000000000000000 ) ) ;
#118 = SURFACE_STYLE_FILL_AREA ( #149 ) ;
#119 = CARTESIAN_POINT ( 'NONE',  ( -115.9094512549030500, 52.38835776542369200, 2.575131776422594600E-017 ) ) ;
#120 = FACE_OUTER_BOUND ( 'NONE', #28, .T. ) ;
#121 =( NAMED_UNIT ( * ) PLANE_ANGLE_UNIT ( ) SI_UNIT ( $, .RADIAN. ) );
#122 = CARTESIAN_POINT ( 'NONE',  ( 95.09044396835994900, 52.17808229838991700, 0.0000000000000000000 ) ) ;
#123 = ORIENTED_EDGE ( 'NONE', *, *, #44, .T. ) ;
#124 = CARTESIAN_POINT ( 'NONE',  ( 94.72057220113372000, 39.47808229838982200, 0.0000000000000000000 ) ) ;
#125 = CARTESIAN_POINT ( 'NONE',  ( 308.0903391916230600, 51.96780683135581600, 0.0000000000000000000 ) ) ;
#126 = CIRCLE ( 'NONE', #67, 12.70000000000008600 ) ;
#127 = STYLED_ITEM ( 'NONE', ( #190 ), #173 ) ;
#128 = FACE_OUTER_BOUND ( 'NONE', #188, .T. ) ;
#129 =( GEOMETRIC_REPRESENTATION_CONTEXT ( 3 ) GLOBAL_UNCERTAINTY_ASSIGNED_CONTEXT ( ( #13 ) ) GLOBAL_UNIT_ASSIGNED_CONTEXT ( ( #23, #121, #55 ) ) REPRESENTATION_CONTEXT ( 'NONE', 'WORKASPACE' ) );
#130 = FACE_OUTER_BOUND ( 'NONE', #142, .T. ) ;
#131 = SHAPE_DEFINITION_REPRESENTATION ( #71, #38 ) ;
#132 = CARTESIAN_POINT ( 'NONE',  ( 97.09044396835992100, 52.17808229838991000, 0.0000000000000000000 ) ) ;
#133 = DIRECTION ( 'NONE',  ( -1.000000000000000000, -4.877362175853829600E-016, -0.0000000000000000000 ) ) ;
#134 = FILL_AREA_STYLE_COLOUR ( '', #181 ) ;
#135 =( NAMED_UNIT ( * ) SI_UNIT ( $, .STERADIAN. ) SOLID_ANGLE_UNIT ( ) );
#136 = DIRECTION ( 'NONE',  ( 4.877362175853829600E-016, -1.000000000000000000, 0.0000000000000000000 ) ) ;
#137 = CARTESIAN_POINT ( 'NONE',  ( 97.46031573558609300, 64.87808229839024000, 1.555301434917177500E-015 ) ) ;
#138 = DIRECTION ( 'NONE',  ( -1.000000000000000000, 0.0000000000000000000, 0.0000000000000000000 ) ) ;
#139 =( NAMED_UNIT ( * ) SI_UNIT ( $, .STERADIAN. ) SOLID_ANGLE_UNIT ( ) );
#140 = PRODUCT_CONTEXT ( 'NONE', #62, 'mechanical' ) ;
#141 = ORIENTED_EDGE ( 'NONE', *, *, #174, .F. ) ;
#142 = EDGE_LOOP ( 'NONE', ( #148, #153, #143, #79 ) ) ;
#143 = ORIENTED_EDGE ( 'NONE', *, *, #5, .T. ) ;
#144 = PRESENTATION_STYLE_ASSIGNMENT (( #103 ) ) ;
#145 = VERTEX_POINT ( 'NONE', #124 ) ;
#146 = AXIS2_PLACEMENT_3D ( 'NONE', #119, #64, #161 ) ;
#147 = DIRECTION ( 'NONE',  ( -1.000000000000000000, -4.877362175853829600E-016, -0.0000000000000000000 ) ) ;
#148 = ORIENTED_EDGE ( 'NONE', *, *, #92, .F. ) ;
#149 = FILL_AREA_STYLE ('',( #93 ) ) ;
#150 = CARTESIAN_POINT ( 'NONE',  ( -115.9094512549030500, 52.17808229838981000, 0.0000000000000000000 ) ) ;
#151 = CARTESIAN_POINT ( 'NONE',  ( -115.9094512549030500, 51.96780683135593600, 0.0000000000000000000 ) ) ;
#152 = DIRECTION ( 'NONE',  ( 1.000000000000000000, 0.0000000000000000000, 0.0000000000000000000 ) ) ;
#153 = ORIENTED_EDGE ( 'NONE', *, *, #11, .T. ) ;
#154 = TOROIDAL_SURFACE ( 'NONE', #60, 0.2102754670341965000, 211.0000000000001400 ) ;
#155 = FACE_OUTER_BOUND ( 'NONE', #87, .T. ) ;
#156 = AXIS2_PLACEMENT_3D ( 'NONE', #151, #104, #138 ) ;
#157 = FACE_OUTER_BOUND ( 'NONE', #76, .T. ) ;
#158 = TOROIDAL_SURFACE ( 'NONE', #7, 0.2102754670338828900, 210.9999999999999700 ) ;
#159 = CIRCLE ( 'NONE', #146, 210.9999999999999700 ) ;
#160 = VERTEX_POINT ( 'NONE', #34 ) ;
#161 = DIRECTION ( 'NONE',  ( 0.0000000000000000000, -1.000000000000000000, -1.224646799147353200E-016 ) ) ;
#162 = CARTESIAN_POINT ( 'NONE',  ( 97.46031573558607900, 52.17808229838991700, 0.0000000000000000000 ) ) ;
#163 = PRODUCT_DEFINITION_CONTEXT ( 'detailed design', #78, 'design' ) ;
#164 = LINE ( 'NONE', #166, #58 ) ;
#165 = APPLICATION_PROTOCOL_DEFINITION ( 'draft international standard', 'automotive_design', 1998, #62 ) ;
#166 = CARTESIAN_POINT ( 'NONE',  ( 89.85865645361708700, 64.87808229838995500, 1.555301434917144200E-015 ) ) ;
#167 = APPLICATION_PROTOCOL_DEFINITION ( 'draft international standard', 'automotive_design', 1998, #78 ) ;
#168 = CIRCLE ( 'NONE', #156, 210.9999999999999700 ) ;
#169 = CIRCLE ( 'NONE', #94, 12.69999999999999600 ) ;
#170 = ADVANCED_FACE ( 'NONE', ( #128 ), #83, .F. ) ;
#171 = CARTESIAN_POINT ( 'NONE',  ( -115.9094512549030500, 52.17808229838981000, 0.0000000000000000000 ) ) ;
#172 = CIRCLE ( 'NONE', #80, 12.70000000000008600 ) ;
#173 = MANIFOLD_SOLID_BREP ( 'Ðý×ª1', #97 ) ;
#174 = EDGE_CURVE ( 'NONE', #160, #41, #175, .T. ) ;
#175 = CIRCLE ( 'NONE', #40, 211.0000000000001400 ) ;
#176 = AXIS2_PLACEMENT_3D ( 'NONE', #100, #73, #117 ) ;
#177 = CARTESIAN_POINT ( 'NONE',  ( 308.0903391916230600, 52.17808229839001700, 0.0000000000000000000 ) ) ;
#178 = CARTESIAN_POINT ( 'NONE',  ( 97.46031573558607900, 52.17808229838991700, 0.0000000000000000000 ) ) ;
#179 = DIRECTION ( 'NONE',  ( -1.000000000000000000, -4.877362175853829600E-016, -0.0000000000000000000 ) ) ;
#180 = FACE_OUTER_BOUND ( 'NONE', #98, .T. ) ;
#181 = COLOUR_RGB ( '',1.000000000000000000, 1.000000000000000000, 1.000000000000000000 ) ;
#182 = DIRECTION ( 'NONE',  ( 0.0000000000000000000, -1.000000000000000000, 0.0000000000000000000 ) ) ;
#183 = DIRECTION ( 'NONE',  ( -1.000000000000000000, -4.877362175853829600E-016, -0.0000000000000000000 ) ) ;
#184 = DIRECTION ( 'NONE',  ( 0.0000000000000000000, 0.0000000000000000000, -1.000000000000000000 ) ) ;
#185 = ORIENTED_EDGE ( 'NONE', *, *, #85, .T. ) ;
#186 = PRODUCT ( '130080', '130080', '', ( #140 ) ) ;
#187 = PRODUCT_DEFINITION ( 'Î´Öª', '', #36, #163 ) ;
#188 = EDGE_LOOP ( 'NONE', ( #110, #185, #123 ) ) ;
#189 = ORIENTED_EDGE ( 'NONE', *, *, #42, .T. ) ;
#190 = PRESENTATION_STYLE_ASSIGNMENT (( #82 ) ) ;
#191 = VERTEX_POINT ( 'NONE', #137 ) ;
#192 = CARTESIAN_POINT ( 'NONE',  ( 308.0903391916230600, 52.38835776542421000, 2.575131776426435400E-017 ) ) ;
ENDSEC;
END-ISO-10303-21;
