ISO-10303-21;
HEADER;
FILE_DESCRIPTION (( 'STEP AP214' ),
    '1' );
FILE_NAME ('120242.STEP',
    '2019-06-24T05:41:54',
    ( '' ),
    ( '' ),
    'SwSTEP 2.0',
    'SolidWorks 2016',
    '' );
FILE_SCHEMA (( 'AUTOMOTIVE_DESIGN' ));
ENDSEC;

DATA;
#1 = SURFACE_STYLE_FILL_AREA ( #118 ) ;
#2 = CARTESIAN_POINT ( 'NONE',  ( 10.57823596122213100, 6.515563045701520100, 0.0000000000000000000 ) ) ;
#3 = CARTESIAN_POINT ( 'NONE',  ( 13.08770818008833300, 8.515563045701522800, 0.0000000000000000000 ) ) ;
#4 = VERTEX_POINT ( 'NONE', #135 ) ;
#5 =( LENGTH_UNIT ( ) NAMED_UNIT ( * ) SI_UNIT ( .MILLI., .METRE. ) );
#6 = PRESENTATION_LAYER_ASSIGNMENT (  '', '', ( #27 ) ) ;
#7 = CIRCLE ( 'NONE', #179, 6.880000000000000800 ) ;
#8 = EDGE_CURVE ( 'NONE', #65, #163, #143, .T. ) ;
#9 = CARTESIAN_POINT ( 'NONE',  ( 13.08770818008833500, 6.515563045701520100, 0.0000000000000000000 ) ) ;
#10 = EDGE_LOOP ( 'NONE', ( #175, #121, #134, #148 ) ) ;
#11 = SHAPE_DEFINITION_REPRESENTATION ( #161, #186 ) ;
#12 = DIRECTION ( 'NONE',  ( -1.000000000000000000, -0.0000000000000000000, -0.0000000000000000000 ) ) ;
#13 = CARTESIAN_POINT ( 'NONE',  ( 13.08770818008833500, 6.515563045701520100, 0.0000000000000000000 ) ) ;
#14 = ORIENTED_EDGE ( 'NONE', *, *, #18, .F. ) ;
#15 = DIRECTION ( 'NONE',  ( -1.000000000000000000, -0.0000000000000000000, -0.0000000000000000000 ) ) ;
#16 = EDGE_CURVE ( 'NONE', #4, #95, #155, .T. ) ;
#17 = FILL_AREA_STYLE ('',( #103 ) ) ;
#18 = EDGE_CURVE ( 'NONE', #4, #24, #64, .T. ) ;
#19 = APPLICATION_PROTOCOL_DEFINITION ( 'draft international standard', 'automotive_design', 1998, #59 ) ;
#20 = DIRECTION ( 'NONE',  ( 0.0000000000000000000, 0.0000000000000000000, 1.000000000000000000 ) ) ;
#21 = CIRCLE ( 'NONE', #156, 6.880000000000002600 ) ;
#22 =( GEOMETRIC_REPRESENTATION_CONTEXT ( 3 ) GLOBAL_UNCERTAINTY_ASSIGNED_CONTEXT ( ( #168 ) ) GLOBAL_UNIT_ASSIGNED_CONTEXT ( ( #147, #32, #60 ) ) REPRESENTATION_CONTEXT ( 'NONE', 'WORKASPACE' ) );
#23 = CARTESIAN_POINT ( 'NONE',  ( 13.08770818008833500, 6.515563045701520100, 0.0000000000000000000 ) ) ;
#24 = VERTEX_POINT ( 'NONE', #94 ) ;
#25 =( GEOMETRIC_REPRESENTATION_CONTEXT ( 3 ) GLOBAL_UNCERTAINTY_ASSIGNED_CONTEXT ( ( #49 ) ) GLOBAL_UNIT_ASSIGNED_CONTEXT ( ( #5, #146, #77 ) ) REPRESENTATION_CONTEXT ( 'NONE', 'WORKASPACE' ) );
#26 = CLOSED_SHELL ( 'NONE', ( #45, #139, #107, #42, #106 ) ) ;
#27 = STYLED_ITEM ( 'NONE', ( #96 ), #186 ) ;
#28 = EDGE_CURVE ( 'NONE', #95, #65, #108, .T. ) ;
#29 = CARTESIAN_POINT ( 'NONE',  ( 13.08770818008833500, 6.515563045701520100, -2.000000000000000900 ) ) ;
#30 = PRESENTATION_STYLE_ASSIGNMENT (( #87 ) ) ;
#31 = ORIENTED_EDGE ( 'NONE', *, *, #18, .T. ) ;
#32 =( NAMED_UNIT ( * ) PLANE_ANGLE_UNIT ( ) SI_UNIT ( $, .RADIAN. ) );
#33 = CARTESIAN_POINT ( 'NONE',  ( 11.08059508478296000, 6.515563045701520100, -2.000000000000000900 ) ) ;
#34 = DIRECTION ( 'NONE',  ( 0.0000000000000000000, 0.0000000000000000000, -1.000000000000000000 ) ) ;
#35 = ORIENTED_EDGE ( 'NONE', *, *, #8, .F. ) ;
#36 = CARTESIAN_POINT ( 'NONE',  ( 19.67059508478296000, 6.515563045701515700, 0.0000000000000000000 ) ) ;
#37 =( NAMED_UNIT ( * ) PLANE_ANGLE_UNIT ( ) SI_UNIT ( $, .RADIAN. ) );
#38 = EDGE_CURVE ( 'NONE', #24, #184, #72, .T. ) ;
#39 = VECTOR ( 'NONE', #159, 1000.000000000000000 ) ;
#40 = CARTESIAN_POINT ( 'NONE',  ( 10.57823596122213100, 6.515563045701520100, 2.000000000000000900 ) ) ;
#41 = VERTEX_POINT ( 'NONE', #164 ) ;
#42 = ADVANCED_FACE ( 'NONE', ( #105 ), #165, .T. ) ;
#43 = CIRCLE ( 'NONE', #109, 2.000000000000000900 ) ;
#44 = ORIENTED_EDGE ( 'NONE', *, *, #28, .T. ) ;
#45 = ADVANCED_FACE ( 'NONE', ( #152 ), #97, .T. ) ;
#46 = DIRECTION ( 'NONE',  ( -1.000000000000000000, -0.0000000000000000000, -0.0000000000000000000 ) ) ;
#47 = FACE_OUTER_BOUND ( 'NONE', #141, .T. ) ;
#48 = EDGE_CURVE ( 'NONE', #163, #4, #78, .T. ) ;
#49 = UNCERTAINTY_MEASURE_WITH_UNIT (LENGTH_MEASURE( 1.000000000000000100E-005 ), #5, 'distance_accuracy_value', 'NONE');
#50 = DIRECTION ( 'NONE',  ( 1.000000000000000000, 0.0000000000000000000, 0.0000000000000000000 ) ) ;
#51 = CARTESIAN_POINT ( 'NONE',  ( 10.57823596122213100, 6.515563045701520100, -2.000000000000000900 ) ) ;
#52 = CARTESIAN_POINT ( 'NONE',  ( 19.67059508478296000, 6.515563045701515700, 0.0000000000000000000 ) ) ;
#53 = EDGE_LOOP ( 'NONE', ( #74, #98 ) ) ;
#54 = DIRECTION ( 'NONE',  ( 0.0000000000000000000, 0.0000000000000000000, 1.000000000000000000 ) ) ;
#55 = DIRECTION ( 'NONE',  ( 0.0000000000000000000, 0.0000000000000000000, 1.000000000000000000 ) ) ;
#56 = DIRECTION ( 'NONE',  ( -1.000000000000000000, -0.0000000000000000000, -0.0000000000000000000 ) ) ;
#57 =( LENGTH_UNIT ( ) NAMED_UNIT ( * ) SI_UNIT ( .MILLI., .METRE. ) );
#58 = CARTESIAN_POINT ( 'NONE',  ( 11.08059508478296000, 6.515563045701520100, 0.0000000000000000000 ) ) ;
#59 = APPLICATION_CONTEXT ( 'automotive_design' ) ;
#60 =( NAMED_UNIT ( * ) SI_UNIT ( $, .STERADIAN. ) SOLID_ANGLE_UNIT ( ) );
#61 = ORIENTED_EDGE ( 'NONE', *, *, #84, .F. ) ;
#62 = DIRECTION ( 'NONE',  ( 0.0000000000000000000, 0.0000000000000000000, -1.000000000000000000 ) ) ;
#63 = EDGE_CURVE ( 'NONE', #184, #24, #43, .T. ) ;
#64 = LINE ( 'NONE', #40, #69 ) ;
#65 = VERTEX_POINT ( 'NONE', #29 ) ;
#66 = DIRECTION ( 'NONE',  ( -1.000000000000000000, -0.0000000000000000000, -0.0000000000000000000 ) ) ;
#67 = EDGE_CURVE ( 'NONE', #95, #41, #7, .T. ) ;
#68 = AXIS2_PLACEMENT_3D ( 'NONE', #177, #113, #50 ) ;
#69 = VECTOR ( 'NONE', #12, 1000.000000000000000 ) ;
#70 = ORIENTED_EDGE ( 'NONE', *, *, #84, .T. ) ;
#71 = DIRECTION ( 'NONE',  ( 0.0000000000000000000, 0.0000000000000000000, 1.000000000000000000 ) ) ;
#72 = CIRCLE ( 'NONE', #83, 2.000000000000000900 ) ;
#73 = AXIS2_PLACEMENT_3D ( 'NONE', #13, #56, #82 ) ;
#74 = ORIENTED_EDGE ( 'NONE', *, *, #38, .T. ) ;
#75 = DIRECTION ( 'NONE',  ( -1.000000000000000000, -0.0000000000000000000, -0.0000000000000000000 ) ) ;
#76 = CARTESIAN_POINT ( 'NONE',  ( 19.67059508478296000, 6.515563045701515700, 0.0000000000000000000 ) ) ;
#77 =( NAMED_UNIT ( * ) SI_UNIT ( $, .STERADIAN. ) SOLID_ANGLE_UNIT ( ) );
#78 = CIRCLE ( 'NONE', #91, 2.000000000000000900 ) ;
#79 = PRODUCT_DEFINITION ( 'Î´Öª', '', #129, #136 ) ;
#80 = PRODUCT ( '120242', '120242', '', ( #145 ) ) ;
#81 = ORIENTED_EDGE ( 'NONE', *, *, #28, .F. ) ;
#82 = DIRECTION ( 'NONE',  ( 0.0000000000000000000, 0.0000000000000000000, 1.000000000000000000 ) ) ;
#83 = AXIS2_PLACEMENT_3D ( 'NONE', #133, #46, #71 ) ;
#84 = EDGE_CURVE ( 'NONE', #65, #184, #112, .T. ) ;
#85 = PRODUCT_RELATED_PRODUCT_CATEGORY ( 'part', '', ( #80 ) ) ;
#86 = CARTESIAN_POINT ( 'NONE',  ( 19.67059508478296000, 6.515563045701515700, 0.0000000000000000000 ) ) ;
#87 = SURFACE_STYLE_USAGE ( .BOTH. , #131 ) ;
#88 = DIRECTION ( 'NONE',  ( 0.0000000000000000000, 1.000000000000000000, 0.0000000000000000000 ) ) ;
#89 = COLOUR_RGB ( '',1.000000000000000000, 1.000000000000000000, 1.000000000000000000 ) ;
#90 = CARTESIAN_POINT ( 'NONE',  ( 11.08059508478296000, 6.515563045701520100, 0.0000000000000000000 ) ) ;
#91 = AXIS2_PLACEMENT_3D ( 'NONE', #124, #170, #172 ) ;
#92 = CARTESIAN_POINT ( 'NONE',  ( 10.57823596122213100, 6.515563045701520100, 0.0000000000000000000 ) ) ;
#93 = ORIENTED_EDGE ( 'NONE', *, *, #16, .T. ) ;
#94 = CARTESIAN_POINT ( 'NONE',  ( 11.08059508478296000, 6.515563045701520100, 2.000000000000000900 ) ) ;
#95 = VERTEX_POINT ( 'NONE', #3 ) ;
#96 = PRESENTATION_STYLE_ASSIGNMENT (( #176 ) ) ;
#97 = CYLINDRICAL_SURFACE ( 'NONE', #119, 2.000000000000000900 ) ;
#98 = ORIENTED_EDGE ( 'NONE', *, *, #63, .T. ) ;
#99 = DIRECTION ( 'NONE',  ( 1.000000000000000000, 0.0000000000000000000, 0.0000000000000000000 ) ) ;
#100 = FACE_OUTER_BOUND ( 'NONE', #10, .T. ) ;
#101 = DIRECTION ( 'NONE',  ( 0.0000000000000000000, 1.000000000000000000, 0.0000000000000000000 ) ) ;
#102 = APPLICATION_CONTEXT ( 'automotive_design' ) ;
#103 = FILL_AREA_STYLE_COLOUR ( '', #166 ) ;
#104 = FILL_AREA_STYLE_COLOUR ( '', #89 ) ;
#105 = FACE_OUTER_BOUND ( 'NONE', #144, .T. ) ;
#106 = ADVANCED_FACE ( 'NONE', ( #183 ), #127, .F. ) ;
#107 = ADVANCED_FACE ( 'NONE', ( #47 ), #125, .F. ) ;
#108 = CIRCLE ( 'NONE', #73, 2.000000000000000900 ) ;
#109 = AXIS2_PLACEMENT_3D ( 'NONE', #58, #75, #173 ) ;
#110 = MANIFOLD_SOLID_BREP ( 'Ðý×ª1', #26 ) ;
#111 = EDGE_CURVE ( 'NONE', #163, #41, #21, .T. ) ;
#112 = LINE ( 'NONE', #51, #39 ) ;
#113 = DIRECTION ( 'NONE',  ( 0.0000000000000000000, 0.0000000000000000000, 1.000000000000000000 ) ) ;
#114 = DIRECTION ( 'NONE',  ( 0.0000000000000000000, 1.000000000000000000, 1.224646799147353200E-016 ) ) ;
#115 = DIRECTION ( 'NONE',  ( 1.000000000000000000, 0.0000000000000000000, 0.0000000000000000000 ) ) ;
#116 = SPHERICAL_SURFACE ( 'NONE', #182, 6.880000000000002600 ) ;
#117 = DIRECTION ( 'NONE',  ( 0.0000000000000000000, 1.224646799147353200E-016, -1.000000000000000000 ) ) ;
#118 = FILL_AREA_STYLE ('',( #104 ) ) ;
#119 = AXIS2_PLACEMENT_3D ( 'NONE', #2, #15, #171 ) ;
#120 = PRESENTATION_LAYER_ASSIGNMENT (  '', '', ( #123 ) ) ;
#121 = ORIENTED_EDGE ( 'NONE', *, *, #111, .T. ) ;
#122 = AXIS2_PLACEMENT_3D ( 'NONE', #9, #137, #55 ) ;
#123 = STYLED_ITEM ( 'NONE', ( #30 ), #110 ) ;
#124 = CARTESIAN_POINT ( 'NONE',  ( 13.08770818008833500, 6.515563045701520100, 0.0000000000000000000 ) ) ;
#125 = SPHERICAL_SURFACE ( 'NONE', #162, 6.880000000000002600 ) ;
#126 = UNCERTAINTY_MEASURE_WITH_UNIT (LENGTH_MEASURE( 1.000000000000000100E-005 ), #57, 'distance_accuracy_value', 'NONE');
#127 = PLANE ( 'NONE',  #167 ) ;
#128 = SURFACE_STYLE_FILL_AREA ( #17 ) ;
#129 = PRODUCT_DEFINITION_FORMATION_WITH_SPECIFIED_SOURCE ( 'ÈÎºÎ', '', #80, .NOT_KNOWN. ) ;
#130 = DIRECTION ( 'NONE',  ( 0.0000000000000000000, 0.0000000000000000000, -1.000000000000000000 ) ) ;
#131 = SURFACE_SIDE_STYLE ('',( #1 ) ) ;
#132 = ORIENTED_EDGE ( 'NONE', *, *, #111, .F. ) ;
#133 = CARTESIAN_POINT ( 'NONE',  ( 11.08059508478296000, 6.515563045701520100, 0.0000000000000000000 ) ) ;
#134 = ORIENTED_EDGE ( 'NONE', *, *, #67, .F. ) ;
#135 = CARTESIAN_POINT ( 'NONE',  ( 13.08770818008833500, 6.515563045701520100, 2.000000000000000900 ) ) ;
#136 = PRODUCT_DEFINITION_CONTEXT ( 'detailed design', #59, 'design' ) ;
#137 = DIRECTION ( 'NONE',  ( -1.000000000000000000, -0.0000000000000000000, -0.0000000000000000000 ) ) ;
#138 = MECHANICAL_DESIGN_GEOMETRIC_PRESENTATION_REPRESENTATION (  '', ( #123 ), #153 ) ;
#139 = ADVANCED_FACE ( 'NONE', ( #100 ), #116, .F. ) ;
#140 = AXIS2_PLACEMENT_3D ( 'NONE', #92, #150, #54 ) ;
#141 = EDGE_LOOP ( 'NONE', ( #132, #35, #81, #142 ) ) ;
#142 = ORIENTED_EDGE ( 'NONE', *, *, #67, .T. ) ;
#143 = CIRCLE ( 'NONE', #122, 2.000000000000000900 ) ;
#144 = EDGE_LOOP ( 'NONE', ( #61, #154, #178, #31, #181 ) ) ;
#145 = PRODUCT_CONTEXT ( 'NONE', #102, 'mechanical' ) ;
#146 =( NAMED_UNIT ( * ) PLANE_ANGLE_UNIT ( ) SI_UNIT ( $, .RADIAN. ) );
#147 =( LENGTH_UNIT ( ) NAMED_UNIT ( * ) SI_UNIT ( .MILLI., .METRE. ) );
#148 = ORIENTED_EDGE ( 'NONE', *, *, #16, .F. ) ;
#149 = CARTESIAN_POINT ( 'NONE',  ( 13.08770818008833300, 4.515563045701513000, -2.449293598294709900E-016 ) ) ;
#150 = DIRECTION ( 'NONE',  ( -1.000000000000000000, -0.0000000000000000000, -0.0000000000000000000 ) ) ;
#151 = AXIS2_PLACEMENT_3D ( 'NONE', #23, #66, #180 ) ;
#152 = FACE_OUTER_BOUND ( 'NONE', #158, .T. ) ;
#153 =( GEOMETRIC_REPRESENTATION_CONTEXT ( 3 ) GLOBAL_UNCERTAINTY_ASSIGNED_CONTEXT ( ( #126 ) ) GLOBAL_UNIT_ASSIGNED_CONTEXT ( ( #57, #37, #157 ) ) REPRESENTATION_CONTEXT ( 'NONE', 'WORKASPACE' ) );
#154 = ORIENTED_EDGE ( 'NONE', *, *, #8, .T. ) ;
#155 = CIRCLE ( 'NONE', #151, 2.000000000000000900 ) ;
#156 = AXIS2_PLACEMENT_3D ( 'NONE', #36, #117, #114 ) ;
#157 =( NAMED_UNIT ( * ) SI_UNIT ( $, .STERADIAN. ) SOLID_ANGLE_UNIT ( ) );
#158 = EDGE_LOOP ( 'NONE', ( #44, #70, #169, #14, #93 ) ) ;
#159 = DIRECTION ( 'NONE',  ( -1.000000000000000000, -0.0000000000000000000, -0.0000000000000000000 ) ) ;
#160 = APPLICATION_PROTOCOL_DEFINITION ( 'draft international standard', 'automotive_design', 1998, #102 ) ;
#161 = PRODUCT_DEFINITION_SHAPE ( 'NONE', 'NONE',  #79 ) ;
#162 = AXIS2_PLACEMENT_3D ( 'NONE', #76, #34, #101 ) ;
#163 = VERTEX_POINT ( 'NONE', #149 ) ;
#164 = CARTESIAN_POINT ( 'NONE',  ( 12.79059508478295900, 6.515563045701515700, 0.0000000000000000000 ) ) ;
#165 = CYLINDRICAL_SURFACE ( 'NONE', #140, 2.000000000000000900 ) ;
#166 = COLOUR_RGB ( '',1.000000000000000000, 1.000000000000000000, 1.000000000000000000 ) ;
#167 = AXIS2_PLACEMENT_3D ( 'NONE', #90, #99, #62 ) ;
#168 = UNCERTAINTY_MEASURE_WITH_UNIT (LENGTH_MEASURE( 1.000000000000000100E-005 ), #147, 'distance_accuracy_value', 'NONE');
#169 = ORIENTED_EDGE ( 'NONE', *, *, #38, .F. ) ;
#170 = DIRECTION ( 'NONE',  ( -1.000000000000000000, -0.0000000000000000000, -0.0000000000000000000 ) ) ;
#171 = DIRECTION ( 'NONE',  ( 0.0000000000000000000, 0.0000000000000000000, 1.000000000000000000 ) ) ;
#172 = DIRECTION ( 'NONE',  ( 0.0000000000000000000, 0.0000000000000000000, 1.000000000000000000 ) ) ;
#173 = DIRECTION ( 'NONE',  ( 0.0000000000000000000, 0.0000000000000000000, 1.000000000000000000 ) ) ;
#174 = SURFACE_SIDE_STYLE ('',( #128 ) ) ;
#175 = ORIENTED_EDGE ( 'NONE', *, *, #48, .F. ) ;
#176 = SURFACE_STYLE_USAGE ( .BOTH. , #174 ) ;
#177 = CARTESIAN_POINT ( 'NONE',  ( 0.0000000000000000000, 0.0000000000000000000, 0.0000000000000000000 ) ) ;
#178 = ORIENTED_EDGE ( 'NONE', *, *, #48, .T. ) ;
#179 = AXIS2_PLACEMENT_3D ( 'NONE', #86, #20, #115 ) ;
#180 = DIRECTION ( 'NONE',  ( 0.0000000000000000000, 0.0000000000000000000, 1.000000000000000000 ) ) ;
#181 = ORIENTED_EDGE ( 'NONE', *, *, #63, .F. ) ;
#182 = AXIS2_PLACEMENT_3D ( 'NONE', #52, #130, #88 ) ;
#183 = FACE_OUTER_BOUND ( 'NONE', #53, .T. ) ;
#184 = VERTEX_POINT ( 'NONE', #33 ) ;
#185 = MECHANICAL_DESIGN_GEOMETRIC_PRESENTATION_REPRESENTATION (  '', ( #27 ), #25 ) ;
#186 = ADVANCED_BREP_SHAPE_REPRESENTATION ( '120242', ( #110, #68 ), #22 ) ;
ENDSEC;
END-ISO-10303-21;
