ISO-10303-21;
HEADER;
FILE_DESCRIPTION (( 'STEP AP203' ),
    '1' );
FILE_NAME ('110155.STEP',
    '2019-07-09T05:25:32',
    ( '' ),
    ( '' ),
    'SwSTEP 2.0',
    'SolidWorks 2016',
    '' );
FILE_SCHEMA (( 'CONFIG_CONTROL_DESIGN' ));
ENDSEC;

DATA;
#1 = PRODUCT_DEFINITION_FORMATION_WITH_SPECIFIED_SOURCE ( 'ÈÎºÎ', '', #57, .NOT_KNOWN. ) ;
#2 = CALENDAR_DATE ( 2019, 9, 7 ) ;
#3 = DIRECTION ( 'NONE',  ( -1.000000000000000000, -0.0000000000000000000, -0.0000000000000000000 ) ) ;
#4 = DIRECTION ( 'NONE',  ( -0.0000000000000000000, 0.0000000000000000000, 1.000000000000000000 ) ) ;
#5 = DATE_AND_TIME ( #36, #151 ) ;
#6 = CC_DESIGN_PERSON_AND_ORGANIZATION_ASSIGNMENT ( #55, #45, ( #199 ) ) ;
#7 = UNCERTAINTY_MEASURE_WITH_UNIT (LENGTH_MEASURE( 1.000000000000000100E-005 ), #227, 'distance_accuracy_value', 'NONE');
#8 = EDGE_CURVE ( 'NONE', #303, #152, #137, .T. ) ;
#9 = LOCAL_TIME ( 13, 25, 32.00000000000000000, #49 ) ;
#10 = ORIENTED_EDGE ( 'NONE', *, *, #242, .T. ) ;
#11 = DIRECTION ( 'NONE',  ( 0.0000000000000000000, -1.000000000000000000, -1.224646799147353200E-016 ) ) ;
#12 = PERSON_AND_ORGANIZATION ( #161, #24 ) ;
#13 = CARTESIAN_POINT ( 'NONE',  ( 0.0000000000000000000, 0.0000000000000000000, 0.0000000000000000000 ) ) ;
#14 = EDGE_CURVE ( 'NONE', #345, #81, #277, .T. ) ;
#15 = DIRECTION ( 'NONE',  ( 0.0000000000000000000, -1.000000000000000000, 0.0000000000000000000 ) ) ;
#16 = DIRECTION ( 'NONE',  ( -1.000000000000000000, -0.0000000000000000000, -0.0000000000000000000 ) ) ;
#17 = PRODUCT_DEFINITION ( 'Î´Öª', '', #1, #23 ) ;
#18 = CARTESIAN_POINT ( 'NONE',  ( 17.92481343797692600, 48.61611302318482300, 0.0000000000000000000 ) ) ;
#19 = VECTOR ( 'NONE', #150, 1000.000000000000000 ) ;
#20 = APPROVAL_STATUS ( 'not_yet_approved' ) ;
#21 = ORIENTED_EDGE ( 'NONE', *, *, #87, .F. ) ;
#22 = DIRECTION ( 'NONE',  ( -0.0000000000000000000, 0.0000000000000000000, -1.000000000000000000 ) ) ;
#23 = DESIGN_CONTEXT ( 'detailed design', #88, 'design' ) ;
#24 = ORGANIZATION ( 'Î´Ö¸¶¨', 'Î´Ö¸¶¨', '' ) ;
#25 = CC_DESIGN_PERSON_AND_ORGANIZATION_ASSIGNMENT ( #141, #260, ( #153 ) ) ;
#26 = AXIS2_PLACEMENT_3D ( 'NONE', #96, #251, #43 ) ;
#27 = COORDINATED_UNIVERSAL_TIME_OFFSET ( 8, 0, .AHEAD. ) ;
#28 = ORIENTED_EDGE ( 'NONE', *, *, #156, .T. ) ;
#29 = CARTESIAN_POINT ( 'NONE',  ( 85.45852234609111500, 48.61611302318478100, 0.0000000000000000000 ) ) ;
#30 = CIRCLE ( 'NONE', #229, 70.68334519382926800 ) ;
#31 = AXIS2_PLACEMENT_3D ( 'NONE', #258, #287, #338 ) ;
#32 = APPROVAL ( #314, 'Î´Ö¸¶¨' ) ;
#33 = APPLICATION_PROTOCOL_DEFINITION ( 'international standard', 'config_control_design', 1994, #88 ) ;
#34 = SPHERICAL_SURFACE ( 'NONE', #269, 70.68334519382926800 ) ;
#35 = ORIENTED_EDGE ( 'NONE', *, *, #275, .F. ) ;
#36 = CALENDAR_DATE ( 2019, 9, 7 ) ;
#37 = CYLINDRICAL_SURFACE ( 'NONE', #208, 12.69999999999999600 ) ;
#38 = DIRECTION ( 'NONE',  ( -1.000000000000000000, -0.0000000000000000000, -0.0000000000000000000 ) ) ;
#39 = CARTESIAN_POINT ( 'NONE',  ( 85.45852234609111500, 48.61611302318478100, 0.0000000000000000000 ) ) ;
#40 = CC_DESIGN_PERSON_AND_ORGANIZATION_ASSIGNMENT ( #174, #50, ( #153 ) ) ;
#41 = DIRECTION ( 'NONE',  ( 0.0000000000000000000, 1.000000000000000000, 1.224646799147353200E-016 ) ) ;
#42 = VERTEX_POINT ( 'NONE', #135 ) ;
#43 = DIRECTION ( 'NONE',  ( 0.0000000000000000000, 0.0000000000000000000, 1.000000000000000000 ) ) ;
#44 = ORIENTED_EDGE ( 'NONE', *, *, #259, .T. ) ;
#45 = PERSON_AND_ORGANIZATION_ROLE ( 'creator' ) ;
#46 = CARTESIAN_POINT ( 'NONE',  ( 154.9915741113489400, 48.61611302318474500, 0.0000000000000000000 ) ) ;
#47 = CC_DESIGN_PERSON_AND_ORGANIZATION_ASSIGNMENT ( #213, #306, ( #17 ) ) ;
#48 = DATE_TIME_ROLE ( 'classification_date' ) ;
#49 = COORDINATED_UNIVERSAL_TIME_OFFSET ( 8, 0, .AHEAD. ) ;
#50 = PERSON_AND_ORGANIZATION_ROLE ( 'design_supplier' ) ;
#51 = ORIENTED_EDGE ( 'NONE', *, *, #259, .F. ) ;
#52 = APPROVAL_ROLE ( '' ) ;
#53 = CARTESIAN_POINT ( 'NONE',  ( 154.9915741113489400, 48.61611302318474500, 0.0000000000000000000 ) ) ;
#54 = APPLICATION_CONTEXT ( 'configuration controlled 3d designs of mechanical parts and assemblies' ) ;
#55 = PERSON_AND_ORGANIZATION ( #161, #24 ) ;
#56 = LINE ( 'NONE', #89, #325 ) ;
#57 = PRODUCT ( '110155', '110155', '', ( #312 ) ) ;
#58 = EDGE_LOOP ( 'NONE', ( #217, #228, #248, #44 ) ) ;
#59 = DIRECTION ( 'NONE',  ( 1.000000000000000000, 0.0000000000000000000, 0.0000000000000000000 ) ) ;
#60 = SECURITY_CLASSIFICATION ( '', '', #125 ) ;
#61 = DIRECTION ( 'NONE',  ( 0.0000000000000000000, 1.000000000000000000, 0.0000000000000000000 ) ) ;
#62 = APPROVAL_PERSON_ORGANIZATION ( #266, #32, #75 ) ;
#63 = ORIENTED_EDGE ( 'NONE', *, *, #14, .T. ) ;
#64 = CARTESIAN_POINT ( 'NONE',  ( 87.45786520323396500, 48.61611302318478100, -12.69999999999999600 ) ) ;
#65 = SECURITY_CLASSIFICATION ( '', '', #286 ) ;
#66 = LOCAL_TIME ( 13, 25, 32.00000000000000000, #193 ) ;
#67 = APPLICATION_CONTEXT ( 'configuration controlled 3d designs of mechanical parts and assemblies' ) ;
#68 = DATE_AND_TIME ( #126, #165 ) ;
#69 = CIRCLE ( 'NONE', #339, 12.69999999999999600 ) ;
#70 = APPROVAL_ROLE ( '' ) ;
#71 = VERTEX_POINT ( 'NONE', #167 ) ;
#72 = APPLICATION_CONTEXT ( 'configuration controlled 3d designs of mechanical parts and assemblies' ) ;
#73 = APPROVAL_STATUS ( 'not_yet_approved' ) ;
#74 = PERSON_AND_ORGANIZATION ( #161, #24 ) ;
#75 = APPROVAL_ROLE ( '' ) ;
#76 = COORDINATED_UNIVERSAL_TIME_OFFSET ( 8, 0, .AHEAD. ) ;
#77 = ORIENTED_EDGE ( 'NONE', *, *, #103, .F. ) ;
#78 = DIRECTION ( 'NONE',  ( -1.000000000000000000, 0.0000000000000000000, 0.0000000000000000000 ) ) ;
#79 = CC_DESIGN_APPROVAL ( #173, ( #60 ) ) ;
#80 = LOCAL_TIME ( 13, 25, 32.00000000000000000, #136 ) ;
#81 = VERTEX_POINT ( 'NONE', #164 ) ;
#82 = CC_DESIGN_SECURITY_CLASSIFICATION ( #65, ( #1 ) ) ;
#83 = PRODUCT_DEFINITION_SHAPE ( 'NONE', 'NONE',  #199 ) ;
#84 = PRODUCT ( '110155', '110155', '', ( #99 ) ) ;
#85 = LOCAL_TIME ( 13, 25, 32.00000000000000000, #76 ) ;
#86 = FACE_OUTER_BOUND ( 'NONE', #180, .T. ) ;
#87 = EDGE_CURVE ( 'NONE', #293, #159, #226, .T. ) ;
#88 = APPLICATION_CONTEXT ( 'configuration controlled 3d designs of mechanical parts and assemblies' ) ;
#89 = CARTESIAN_POINT ( 'NONE',  ( 79.30540135083715800, 48.61611302318478100, -12.69999999999999600 ) ) ;
#90 = LOCAL_TIME ( 13, 25, 32.00000000000000000, #27 ) ;
#91 = AXIS2_PLACEMENT_3D ( 'NONE', #29, #3, #189 ) ;
#92 = CARTESIAN_POINT ( 'NONE',  ( 79.30540135083715800, 48.61611302318478100, 0.0000000000000000000 ) ) ;
#93 = DIRECTION ( 'NONE',  ( 0.0000000000000000000, 0.0000000000000000000, 1.000000000000000000 ) ) ;
#94 = PRODUCT_RELATED_PRODUCT_CATEGORY ( 'detail', '', ( #84 ) ) ;
#95 = APPROVAL_ROLE ( '' ) ;
#96 = CARTESIAN_POINT ( 'NONE',  ( 85.45852234609111500, 48.61611302318478100, 0.0000000000000000000 ) ) ;
#97 = DIRECTION ( 'NONE',  ( 0.0000000000000000000, -1.000000000000000000, 0.0000000000000000000 ) ) ;
#98 = AXIS2_PLACEMENT_3D ( 'NONE', #233, #319, #78 ) ;
#99 = MECHANICAL_CONTEXT ( 'NONE', #67, 'mechanical' ) ;
#100 = CC_DESIGN_DATE_AND_TIME_ASSIGNMENT ( #5, #343, ( #199 ) ) ;
#101 = APPLICATION_PROTOCOL_DEFINITION ( 'international standard', 'config_control_design', 1994, #54 ) ;
#102 = CIRCLE ( 'NONE', #98, 70.68334519382847200 ) ;
#103 = EDGE_CURVE ( 'NONE', #280, #146, #191, .T. ) ;
#104 = SHAPE_DEFINITION_REPRESENTATION ( #83, #223 ) ;
#105 = ORIENTED_EDGE ( 'NONE', *, *, #8, .T. ) ;
#106 = PRODUCT_RELATED_PRODUCT_CATEGORY ( 'detail', '', ( #57 ) ) ;
#107 = DATE_AND_TIME ( #120, #203 ) ;
#108 = CIRCLE ( 'NONE', #26, 12.69999999999999600 ) ;
#109 = EDGE_CURVE ( 'NONE', #81, #280, #108, .T. ) ;
#110 = CC_DESIGN_APPROVAL ( #168, ( #17 ) ) ;
#111 = CARTESIAN_POINT ( 'NONE',  ( 17.92481343797692600, 48.61611302318482300, 0.0000000000000000000 ) ) ;
#112 =( NAMED_UNIT ( * ) SI_UNIT ( $, .STERADIAN. ) SOLID_ANGLE_UNIT ( ) );
#113 = LINE ( 'NONE', #124, #19 ) ;
#114 = DIRECTION ( 'NONE',  ( -1.000000000000000000, -0.0000000000000000000, -0.0000000000000000000 ) ) ;
#115 = EDGE_CURVE ( 'NONE', #159, #303, #122, .T. ) ;
#116 = CC_DESIGN_DATE_AND_TIME_ASSIGNMENT ( #133, #48, ( #60 ) ) ;
#117 = SPHERICAL_SURFACE ( 'NONE', #288, 70.68334519382847200 ) ;
#118 = PERSON_AND_ORGANIZATION_ROLE ( 'design_supplier' ) ;
#119 = DIRECTION ( 'NONE',  ( 0.0000000000000000000, 0.0000000000000000000, 1.000000000000000000 ) ) ;
#120 = CALENDAR_DATE ( 2019, 9, 7 ) ;
#121 = CARTESIAN_POINT ( 'NONE',  ( 17.92481343797692600, 48.61611302318482300, 0.0000000000000000000 ) ) ;
#122 = CIRCLE ( 'NONE', #31, 12.69999999999999600 ) ;
#123 = ORIENTED_EDGE ( 'NONE', *, *, #252, .F. ) ;
#124 = CARTESIAN_POINT ( 'NONE',  ( 79.30540135083715800, 48.61611302318478100, 12.69999999999999600 ) ) ;
#125 = SECURITY_CLASSIFICATION_LEVEL ( 'unclassified' ) ;
#126 = CALENDAR_DATE ( 2019, 9, 7 ) ;
#127 = ORIENTED_EDGE ( 'NONE', *, *, #242, .F. ) ;
#128 = DIRECTION ( 'NONE',  ( 0.0000000000000000000, 1.000000000000000000, 0.0000000000000000000 ) ) ;
#129 = ADVANCED_FACE ( 'NONE', ( #155 ), #315, .T. ) ;
#130 = AXIS2_PLACEMENT_3D ( 'NONE', #111, #305, #11 ) ;
#131 = APPROVAL_DATE_TIME ( #107, #32 ) ;
#132 = ORIENTED_EDGE ( 'NONE', *, *, #275, .T. ) ;
#133 = DATE_AND_TIME ( #2, #9 ) ;
#134 = ORIENTED_EDGE ( 'NONE', *, *, #317, .T. ) ;
#135 = CARTESIAN_POINT ( 'NONE',  ( 84.30822891751968500, 48.61611302318475200, 0.0000000000000000000 ) ) ;
#136 = COORDINATED_UNIVERSAL_TIME_OFFSET ( 8, 0, .AHEAD. ) ;
#137 = CIRCLE ( 'NONE', #334, 12.69999999999999600 ) ;
#138 = EDGE_LOOP ( 'NONE', ( #308, #132, #301, #77, #127, #170 ) ) ;
#139 = DIRECTION ( 'NONE',  ( 0.0000000000000000000, 0.0000000000000000000, 1.000000000000000000 ) ) ;
#140 = DIRECTION ( 'NONE',  ( 1.000000000000000000, 0.0000000000000000000, 0.0000000000000000000 ) ) ;
#141 = PERSON_AND_ORGANIZATION ( #161, #24 ) ;
#142 =( GEOMETRIC_REPRESENTATION_CONTEXT ( 3 ) GLOBAL_UNCERTAINTY_ASSIGNED_CONTEXT ( ( #7 ) ) GLOBAL_UNIT_ASSIGNED_CONTEXT ( ( #227, #207, #112 ) ) REPRESENTATION_CONTEXT ( 'NONE', 'WORKASPACE' ) );
#143 = PERSON_AND_ORGANIZATION ( #161, #24 ) ;
#144 = CIRCLE ( 'NONE', #187, 70.68334519382926800 ) ;
#145 = CARTESIAN_POINT ( 'NONE',  ( 154.9915741113489400, 48.61611302318474500, 0.0000000000000000000 ) ) ;
#146 = VERTEX_POINT ( 'NONE', #231 ) ;
#147 = APPROVAL ( #331, 'Î´Ö¸¶¨' ) ;
#148 = PERSON_AND_ORGANIZATION_ROLE ( 'design_owner' ) ;
#149 = DIRECTION ( 'NONE',  ( 0.0000000000000000000, 1.224646799147353200E-016, -1.000000000000000000 ) ) ;
#150 = DIRECTION ( 'NONE',  ( -1.000000000000000000, -0.0000000000000000000, -0.0000000000000000000 ) ) ;
#151 = LOCAL_TIME ( 13, 25, 32.00000000000000000, #218 ) ;
#152 = VERTEX_POINT ( 'NONE', #309 ) ;
#153 = PRODUCT_DEFINITION_FORMATION_WITH_SPECIFIED_SOURCE ( 'ÈÎºÎ', '', #84, .NOT_KNOWN. ) ;
#154 = DATE_AND_TIME ( #235, #66 ) ;
#155 = FACE_OUTER_BOUND ( 'NONE', #138, .T. ) ;
#156 = EDGE_CURVE ( 'NONE', #152, #71, #69, .T. ) ;
#157 = APPROVAL ( #20, 'Î´Ö¸¶¨' ) ;
#158 = APPROVAL_PERSON_ORGANIZATION ( #247, #168, #70 ) ;
#159 = VERTEX_POINT ( 'NONE', #176 ) ;
#160 = DIRECTION ( 'NONE',  ( 0.0000000000000000000, 0.0000000000000000000, 1.000000000000000000 ) ) ;
#161 = PERSON ( 'Î´Ö¸¶¨', 'Î´Ö¸¶¨', 'Î´Ö¸¶¨', ('Î´Ö¸¶¨'), ('Î´Ö¸¶¨'), ('Î´Ö¸¶¨') ) ;
#162 = ADVANCED_FACE ( 'NONE', ( #166 ), #37, .T. ) ;
#163 = CARTESIAN_POINT ( 'NONE',  ( 154.9915741113489400, 48.61611302318474500, 0.0000000000000000000 ) ) ;
#164 = CARTESIAN_POINT ( 'NONE',  ( 85.45852234609111500, 35.91611302318477100, -1.555301434917135500E-015 ) ) ;
#165 = LOCAL_TIME ( 13, 25, 32.00000000000000000, #190 ) ;
#166 = FACE_OUTER_BOUND ( 'NONE', #336, .T. ) ;
#167 = CARTESIAN_POINT ( 'NONE',  ( 87.45786520323396500, 48.61611302318478100, 12.69999999999999600 ) ) ;
#168 = APPROVAL ( #257, 'Î´Ö¸¶¨' ) ;
#169 = PERSON_AND_ORGANIZATION_ROLE ( 'classification_officer' ) ;
#170 = ORIENTED_EDGE ( 'NONE', *, *, #263, .T. ) ;
#171 = AXIS2_PLACEMENT_3D ( 'NONE', #326, #172, #281 ) ;
#172 = DIRECTION ( 'NONE',  ( -1.000000000000000000, -0.0000000000000000000, -0.0000000000000000000 ) ) ;
#173 = APPROVAL ( #73, 'Î´Ö¸¶¨' ) ;
#174 = PERSON_AND_ORGANIZATION ( #161, #24 ) ;
#175 = CARTESIAN_POINT ( 'NONE',  ( 85.45852234609111500, 48.61611302318478100, -12.69999999999999600 ) ) ;
#176 = CARTESIAN_POINT ( 'NONE',  ( 87.45786520323396500, 61.31611302318479100, 1.555301434917135300E-015 ) ) ;
#177 = DATE_TIME_ROLE ( 'classification_date' ) ;
#178 = CALENDAR_DATE ( 2019, 9, 7 ) ;
#179 = APPLICATION_PROTOCOL_DEFINITION ( 'international standard', 'config_control_design', 1994, #72 ) ;
#180 = EDGE_LOOP ( 'NONE', ( #134, #63, #222, #51 ) ) ;
#181 = CC_DESIGN_PERSON_AND_ORGANIZATION_ASSIGNMENT ( #236, #295, ( #84 ) ) ;
#182 = APPROVAL_ROLE ( '' ) ;
#183 = APPROVAL_ROLE ( '' ) ;
#184 = CC_DESIGN_APPROVAL ( #323, ( #153 ) ) ;
#185 = PERSON_AND_ORGANIZATION ( #161, #24 ) ;
#186 = LOCAL_TIME ( 13, 25, 32.00000000000000000, #329 ) ;
#187 = AXIS2_PLACEMENT_3D ( 'NONE', #145, #149, #41 ) ;
#188 = ADVANCED_FACE ( 'NONE', ( #86 ), #321, .T. ) ;
#189 = DIRECTION ( 'NONE',  ( 0.0000000000000000000, 0.0000000000000000000, 1.000000000000000000 ) ) ;
#190 = COORDINATED_UNIVERSAL_TIME_OFFSET ( 8, 0, .AHEAD. ) ;
#191 = CIRCLE ( 'NONE', #195, 12.69999999999999600 ) ;
#192 = AXIS2_PLACEMENT_3D ( 'NONE', #13, #283, #230 ) ;
#193 = COORDINATED_UNIVERSAL_TIME_OFFSET ( 8, 0, .AHEAD. ) ;
#194 = MANIFOLD_SOLID_BREP ( 'Ðý×ª1', #268 ) ;
#195 = AXIS2_PLACEMENT_3D ( 'NONE', #327, #333, #119 ) ;
#196 = EDGE_LOOP ( 'NONE', ( #123, #274, #239, #210 ) ) ;
#197 = DESIGN_CONTEXT ( 'detailed design', #54, 'design' ) ;
#198 = CARTESIAN_POINT ( 'NONE',  ( 87.45786520323396500, 48.61611302318478100, 0.0000000000000000000 ) ) ;
#199 = PRODUCT_DEFINITION ( 'Î´Öª', '', #153, #197 ) ;
#200 = APPROVAL_PERSON_ORGANIZATION ( #279, #173, #52 ) ;
#201 = ORIENTED_EDGE ( 'NONE', *, *, #252, .T. ) ;
#202 = DIRECTION ( 'NONE',  ( 0.0000000000000000000, 0.0000000000000000000, 1.000000000000000000 ) ) ;
#203 = LOCAL_TIME ( 13, 25, 32.00000000000000000, #282 ) ;
#204 = CIRCLE ( 'NONE', #240, 12.69999999999999600 ) ;
#205 = DIRECTION ( 'NONE',  ( 0.0000000000000000000, 0.0000000000000000000, 1.000000000000000000 ) ) ;
#206 = CC_DESIGN_DATE_AND_TIME_ASSIGNMENT ( #276, #254, ( #17 ) ) ;
#207 =( NAMED_UNIT ( * ) PLANE_ANGLE_UNIT ( ) SI_UNIT ( $, .RADIAN. ) );
#208 = AXIS2_PLACEMENT_3D ( 'NONE', #92, #38, #205 ) ;
#209 = PERSON_AND_ORGANIZATION ( #161, #24 ) ;
#210 = ORIENTED_EDGE ( 'NONE', *, *, #156, .F. ) ;
#211 = CC_DESIGN_PERSON_AND_ORGANIZATION_ASSIGNMENT ( #267, #148, ( #57 ) ) ;
#212 = APPROVAL_PERSON_ORGANIZATION ( #74, #323, #183 ) ;
#213 = PERSON_AND_ORGANIZATION ( #161, #24 ) ;
#214 = ORIENTED_EDGE ( 'NONE', *, *, #115, .F. ) ;
#215 = AXIS2_PLACEMENT_3D ( 'NONE', #53, #22, #128 ) ;
#216 = DATE_AND_TIME ( #243, #80 ) ;
#217 = ORIENTED_EDGE ( 'NONE', *, *, #316, .F. ) ;
#218 = COORDINATED_UNIVERSAL_TIME_OFFSET ( 8, 0, .AHEAD. ) ;
#219 = SPHERICAL_SURFACE ( 'NONE', #322, 70.68334519382847200 ) ;
#220 = CC_DESIGN_PERSON_AND_ORGANIZATION_ASSIGNMENT ( #341, #294, ( #60 ) ) ;
#221 = ORIENTED_EDGE ( 'NONE', *, *, #14, .F. ) ;
#222 = ORIENTED_EDGE ( 'NONE', *, *, #316, .T. ) ;
#223 = ADVANCED_BREP_SHAPE_REPRESENTATION ( '110155', ( #194, #234 ), #142 ) ;
#224 = APPROVAL_PERSON_ORGANIZATION ( #209, #157, #182 ) ;
#225 = CC_DESIGN_PERSON_AND_ORGANIZATION_ASSIGNMENT ( #143, #253, ( #1 ) ) ;
#226 = CIRCLE ( 'NONE', #130, 70.68334519382847200 ) ;
#227 =( LENGTH_UNIT ( ) NAMED_UNIT ( * ) SI_UNIT ( .MILLI., .METRE. ) );
#228 = ORIENTED_EDGE ( 'NONE', *, *, #109, .T. ) ;
#229 = AXIS2_PLACEMENT_3D ( 'NONE', #163, #4, #59 ) ;
#230 = DIRECTION ( 'NONE',  ( 1.000000000000000000, 0.0000000000000000000, 0.0000000000000000000 ) ) ;
#231 = CARTESIAN_POINT ( 'NONE',  ( 85.45852234609111500, 61.31611302318475500, 0.0000000000000000000 ) ) ;
#232 = CARTESIAN_POINT ( 'NONE',  ( 88.60815863180540900, 48.61611302318481600, 0.0000000000000000000 ) ) ;
#233 = CARTESIAN_POINT ( 'NONE',  ( 17.92481343797692600, 48.61611302318482300, 0.0000000000000000000 ) ) ;
#234 = AXIS2_PLACEMENT_3D ( 'NONE', #337, #139, #140 ) ;
#235 = CALENDAR_DATE ( 2019, 9, 7 ) ;
#236 = PERSON_AND_ORGANIZATION ( #161, #24 ) ;
#237 = APPROVAL_STATUS ( 'not_yet_approved' ) ;
#238 = CC_DESIGN_SECURITY_CLASSIFICATION ( #60, ( #153 ) ) ;
#239 = ORIENTED_EDGE ( 'NONE', *, *, #263, .F. ) ;
#240 = AXIS2_PLACEMENT_3D ( 'NONE', #39, #311, #340 ) ;
#241 = CARTESIAN_POINT ( 'NONE',  ( 87.45786520323396500, 48.61611302318478100, 0.0000000000000000000 ) ) ;
#242 = EDGE_CURVE ( 'NONE', #71, #280, #113, .T. ) ;
#243 = CALENDAR_DATE ( 2019, 9, 7 ) ;
#244 = PRODUCT_DEFINITION_SHAPE ( 'NONE', 'NONE',  #17 ) ;
#245 = CC_DESIGN_PERSON_AND_ORGANIZATION_ASSIGNMENT ( #185, #118, ( #1 ) ) ;
#246 = AXIS2_PLACEMENT_3D ( 'NONE', #198, #114, #249 ) ;
#247 = PERSON_AND_ORGANIZATION ( #161, #24 ) ;
#248 = ORIENTED_EDGE ( 'NONE', *, *, #103, .T. ) ;
#249 = DIRECTION ( 'NONE',  ( 0.0000000000000000000, 0.0000000000000000000, 1.000000000000000000 ) ) ;
#250 = FACE_OUTER_BOUND ( 'NONE', #196, .T. ) ;
#251 = DIRECTION ( 'NONE',  ( -1.000000000000000000, -0.0000000000000000000, -0.0000000000000000000 ) ) ;
#252 = EDGE_CURVE ( 'NONE', #293, #152, #102, .T. ) ;
#253 = PERSON_AND_ORGANIZATION_ROLE ( 'creator' ) ;
#254 = DATE_TIME_ROLE ( 'creation_date' ) ;
#255 = COORDINATED_UNIVERSAL_TIME_OFFSET ( 8, 0, .AHEAD. ) ;
#256 = APPROVAL_DATE_TIME ( #307, #168 ) ;
#257 = APPROVAL_STATUS ( 'not_yet_approved' ) ;
#258 = CARTESIAN_POINT ( 'NONE',  ( 87.45786520323396500, 48.61611302318478100, 0.0000000000000000000 ) ) ;
#259 = EDGE_CURVE ( 'NONE', #146, #42, #30, .T. ) ;
#260 = PERSON_AND_ORGANIZATION_ROLE ( 'creator' ) ;
#261 = APPLICATION_PROTOCOL_DEFINITION ( 'international standard', 'config_control_design', 1994, #67 ) ;
#262 = APPROVAL_DATE_TIME ( #216, #323 ) ;
#263 = EDGE_CURVE ( 'NONE', #71, #159, #344, .T. ) ;
#264 = DIRECTION ( 'NONE',  ( 0.0000000000000000000, 0.0000000000000000000, 1.000000000000000000 ) ) ;
#265 = CARTESIAN_POINT ( 'NONE',  ( 87.45786520323396500, 48.61611302318478100, 0.0000000000000000000 ) ) ;
#266 = PERSON_AND_ORGANIZATION ( #161, #24 ) ;
#267 = PERSON_AND_ORGANIZATION ( #161, #24 ) ;
#268 = CLOSED_SHELL ( 'NONE', ( #129, #298, #188, #270, #289, #162 ) ) ;
#269 = AXIS2_PLACEMENT_3D ( 'NONE', #46, #299, #61 ) ;
#270 = ADVANCED_FACE ( 'NONE', ( #297 ), #34, .T. ) ;
#271 = CC_DESIGN_APPROVAL ( #147, ( #1 ) ) ;
#272 = DIRECTION ( 'NONE',  ( -1.000000000000000000, -0.0000000000000000000, -0.0000000000000000000 ) ) ;
#273 = CALENDAR_DATE ( 2019, 9, 7 ) ;
#274 = ORIENTED_EDGE ( 'NONE', *, *, #87, .T. ) ;
#275 = EDGE_CURVE ( 'NONE', #303, #345, #56, .T. ) ;
#276 = DATE_AND_TIME ( #178, #186 ) ;
#277 = CIRCLE ( 'NONE', #91, 12.69999999999999600 ) ;
#278 = CARTESIAN_POINT ( 'NONE',  ( 85.45852234609111500, 48.61611302318478100, 12.69999999999999600 ) ) ;
#279 = PERSON_AND_ORGANIZATION ( #161, #24 ) ;
#280 = VERTEX_POINT ( 'NONE', #278 ) ;
#281 = DIRECTION ( 'NONE',  ( 0.0000000000000000000, 0.0000000000000000000, 1.000000000000000000 ) ) ;
#282 = COORDINATED_UNIVERSAL_TIME_OFFSET ( 8, 0, .AHEAD. ) ;
#283 = DIRECTION ( 'NONE',  ( 0.0000000000000000000, 0.0000000000000000000, 1.000000000000000000 ) ) ;
#284 = CALENDAR_DATE ( 2019, 9, 7 ) ;
#285 = EDGE_LOOP ( 'NONE', ( #21, #201, #342, #214 ) ) ;
#286 = SECURITY_CLASSIFICATION_LEVEL ( 'unclassified' ) ;
#287 = DIRECTION ( 'NONE',  ( -1.000000000000000000, -0.0000000000000000000, -0.0000000000000000000 ) ) ;
#288 = AXIS2_PLACEMENT_3D ( 'NONE', #121, #93, #15 ) ;
#289 = ADVANCED_FACE ( 'NONE', ( #300 ), #117, .T. ) ;
#290 = DIRECTION ( 'NONE',  ( -1.000000000000000000, -0.0000000000000000000, -0.0000000000000000000 ) ) ;
#291 = CC_DESIGN_APPROVAL ( #157, ( #199 ) ) ;
#292 = APPROVAL_DATE_TIME ( #328, #147 ) ;
#293 = VERTEX_POINT ( 'NONE', #232 ) ;
#294 = PERSON_AND_ORGANIZATION_ROLE ( 'classification_officer' ) ;
#295 = PERSON_AND_ORGANIZATION_ROLE ( 'design_owner' ) ;
#296 = DATE_AND_TIME ( #302, #318 ) ;
#297 = FACE_OUTER_BOUND ( 'NONE', #58, .T. ) ;
#298 = ADVANCED_FACE ( 'NONE', ( #250 ), #219, .T. ) ;
#299 = DIRECTION ( 'NONE',  ( -0.0000000000000000000, 0.0000000000000000000, -1.000000000000000000 ) ) ;
#300 = FACE_OUTER_BOUND ( 'NONE', #285, .T. ) ;
#301 = ORIENTED_EDGE ( 'NONE', *, *, #317, .F. ) ;
#302 = CALENDAR_DATE ( 2019, 9, 7 ) ;
#303 = VERTEX_POINT ( 'NONE', #64 ) ;
#304 = CC_DESIGN_DATE_AND_TIME_ASSIGNMENT ( #296, #177, ( #65 ) ) ;
#305 = DIRECTION ( 'NONE',  ( 0.0000000000000000000, -1.224646799147353200E-016, 1.000000000000000000 ) ) ;
#306 = PERSON_AND_ORGANIZATION_ROLE ( 'creator' ) ;
#307 = DATE_AND_TIME ( #284, #90 ) ;
#308 = ORIENTED_EDGE ( 'NONE', *, *, #115, .T. ) ;
#309 = CARTESIAN_POINT ( 'NONE',  ( 87.45786520323396500, 35.91611302318481300, 0.0000000000000000000 ) ) ;
#310 = PERSON_AND_ORGANIZATION ( #161, #24 ) ;
#311 = DIRECTION ( 'NONE',  ( -1.000000000000000000, -0.0000000000000000000, -0.0000000000000000000 ) ) ;
#312 = MECHANICAL_CONTEXT ( 'NONE', #72, 'mechanical' ) ;
#313 = CC_DESIGN_PERSON_AND_ORGANIZATION_ASSIGNMENT ( #12, #169, ( #65 ) ) ;
#314 = APPROVAL_STATUS ( 'not_yet_approved' ) ;
#315 = CYLINDRICAL_SURFACE ( 'NONE', #171, 12.69999999999999600 ) ;
#316 = EDGE_CURVE ( 'NONE', #81, #42, #144, .T. ) ;
#317 = EDGE_CURVE ( 'NONE', #146, #345, #204, .T. ) ;
#318 = LOCAL_TIME ( 13, 25, 32.00000000000000000, #255 ) ;
#319 = DIRECTION ( 'NONE',  ( 0.0000000000000000000, 0.0000000000000000000, -1.000000000000000000 ) ) ;
#320 = CC_DESIGN_APPROVAL ( #32, ( #65 ) ) ;
#321 = SPHERICAL_SURFACE ( 'NONE', #215, 70.68334519382926800 ) ;
#322 = AXIS2_PLACEMENT_3D ( 'NONE', #18, #202, #97 ) ;
#323 = APPROVAL ( #237, 'Î´Ö¸¶¨' ) ;
#324 = APPROVAL_DATE_TIME ( #68, #173 ) ;
#325 = VECTOR ( 'NONE', #16, 1000.000000000000000 ) ;
#326 = CARTESIAN_POINT ( 'NONE',  ( 79.30540135083715800, 48.61611302318478100, 0.0000000000000000000 ) ) ;
#327 = CARTESIAN_POINT ( 'NONE',  ( 85.45852234609111500, 48.61611302318478100, 0.0000000000000000000 ) ) ;
#328 = DATE_AND_TIME ( #273, #85 ) ;
#329 = COORDINATED_UNIVERSAL_TIME_OFFSET ( 8, 0, .AHEAD. ) ;
#330 = ORIENTED_EDGE ( 'NONE', *, *, #109, .F. ) ;
#331 = APPROVAL_STATUS ( 'not_yet_approved' ) ;
#332 = APPROVAL_PERSON_ORGANIZATION ( #310, #147, #95 ) ;
#333 = DIRECTION ( 'NONE',  ( -1.000000000000000000, -0.0000000000000000000, -0.0000000000000000000 ) ) ;
#334 = AXIS2_PLACEMENT_3D ( 'NONE', #241, #272, #160 ) ;
#335 = APPROVAL_DATE_TIME ( #154, #157 ) ;
#336 = EDGE_LOOP ( 'NONE', ( #35, #105, #28, #10, #330, #221 ) ) ;
#337 = CARTESIAN_POINT ( 'NONE',  ( 0.0000000000000000000, 0.0000000000000000000, 0.0000000000000000000 ) ) ;
#338 = DIRECTION ( 'NONE',  ( 0.0000000000000000000, 0.0000000000000000000, 1.000000000000000000 ) ) ;
#339 = AXIS2_PLACEMENT_3D ( 'NONE', #265, #290, #264 ) ;
#340 = DIRECTION ( 'NONE',  ( 0.0000000000000000000, 0.0000000000000000000, 1.000000000000000000 ) ) ;
#341 = PERSON_AND_ORGANIZATION ( #161, #24 ) ;
#342 = ORIENTED_EDGE ( 'NONE', *, *, #8, .F. ) ;
#343 = DATE_TIME_ROLE ( 'creation_date' ) ;
#344 = CIRCLE ( 'NONE', #246, 12.69999999999999600 ) ;
#345 = VERTEX_POINT ( 'NONE', #175 ) ;
ENDSEC;
END-ISO-10303-21;
