ISO-10303-21;
HEADER;
FILE_DESCRIPTION (( 'STEP AP203' ),
    '1' );
FILE_NAME ('110011.STEP',
    '2019-06-25T01:06:51',
    ( '' ),
    ( '' ),
    'SwSTEP 2.0',
    'SolidWorks 2016',
    '' );
FILE_SCHEMA (( 'CONFIG_CONTROL_DESIGN' ));
ENDSEC;

DATA;
#1 = CC_DESIGN_SECURITY_CLASSIFICATION ( #272, ( #238 ) ) ;
#2 = AXIS2_PLACEMENT_3D ( 'NONE', #51, #48, #257 ) ;
#3 = COORDINATED_UNIVERSAL_TIME_OFFSET ( 8, 0, .AHEAD. ) ;
#4 = CALENDAR_DATE ( 2019, 25, 6 ) ;
#5 = DATE_AND_TIME ( #55, #44 ) ;
#6 = CIRCLE ( 'NONE', #76, 11.89123909753875300 ) ;
#7 = PERSON_AND_ORGANIZATION_ROLE ( 'classification_officer' ) ;
#8 = DIRECTION ( 'NONE',  ( -1.000000000000000000, 9.900717937117242800E-016, -0.0000000000000000000 ) ) ;
#9 = COORDINATED_UNIVERSAL_TIME_OFFSET ( 8, 0, .AHEAD. ) ;
#10 = PRODUCT_DEFINITION ( 'Î´Öª', '', #238, #210 ) ;
#11 = DIRECTION ( 'NONE',  ( 1.000000000000000000, 0.0000000000000000000, 0.0000000000000000000 ) ) ;
#12 = EDGE_CURVE ( 'NONE', #262, #32, #69, .T. ) ;
#13 = APPROVAL_DATE_TIME ( #244, #281 ) ;
#14 = FACE_OUTER_BOUND ( 'NONE', #163, .T. ) ;
#15 = PRODUCT ( '110011', '110011', '', ( #103 ) ) ;
#16 = PRODUCT_RELATED_PRODUCT_CATEGORY ( 'detail', '', ( #199 ) ) ;
#17 = APPROVAL_STATUS ( 'not_yet_approved' ) ;
#18 = PERSON_AND_ORGANIZATION_ROLE ( 'creator' ) ;
#19 = ORIENTED_EDGE ( 'NONE', *, *, #305, .T. ) ;
#20 = AXIS2_PLACEMENT_3D ( 'NONE', #100, #171, #197 ) ;
#21 = FACE_OUTER_BOUND ( 'NONE', #111, .T. ) ;
#22 = ORIENTED_EDGE ( 'NONE', *, *, #34, .T. ) ;
#23 = PERSON_AND_ORGANIZATION ( #36, #297 ) ;
#24 = ORIENTED_EDGE ( 'NONE', *, *, #167, .T. ) ;
#25 = ORIENTED_EDGE ( 'NONE', *, *, #220, .T. ) ;
#26 = CC_DESIGN_PERSON_AND_ORGANIZATION_ASSIGNMENT ( #304, #106, ( #238 ) ) ;
#27 = DIRECTION ( 'NONE',  ( -1.110223024625156900E-015, -1.000000000000000000, 0.0000000000000000000 ) ) ;
#28 = EDGE_CURVE ( 'NONE', #147, #33, #6, .T. ) ;
#29 = DIRECTION ( 'NONE',  ( 0.0000000000000000000, 0.0000000000000000000, -1.000000000000000000 ) ) ;
#30 = DIRECTION ( 'NONE',  ( -1.000000000000000000, 9.900717937117242800E-016, -0.0000000000000000000 ) ) ;
#31 = APPROVAL_STATUS ( 'not_yet_approved' ) ;
#32 = VERTEX_POINT ( 'NONE', #295 ) ;
#33 = VERTEX_POINT ( 'NONE', #81 ) ;
#34 = EDGE_CURVE ( 'NONE', #32, #217, #129, .T. ) ;
#35 = APPROVAL_PERSON_ORGANIZATION ( #78, #281, #125 ) ;
#36 = PERSON ( 'Î´Ö¸¶¨', 'Î´Ö¸¶¨', 'Î´Ö¸¶¨', ('Î´Ö¸¶¨'), ('Î´Ö¸¶¨'), ('Î´Ö¸¶¨') ) ;
#37 = ORIENTED_EDGE ( 'NONE', *, *, #46, .T. ) ;
#38 = DIRECTION ( 'NONE',  ( -1.000000000000000000, 9.900717937117242800E-016, -0.0000000000000000000 ) ) ;
#39 = DIRECTION ( 'NONE',  ( 0.0000000000000000000, 0.0000000000000000000, 1.000000000000000000 ) ) ;
#40 = FACE_OUTER_BOUND ( 'NONE', #286, .T. ) ;
#41 = PERSON_AND_ORGANIZATION_ROLE ( 'creator' ) ;
#42 = APPLICATION_CONTEXT ( 'configuration controlled 3d designs of mechanical parts and assemblies' ) ;
#43 = APPLICATION_PROTOCOL_DEFINITION ( 'international standard', 'config_control_design', 1994, #183 ) ;
#44 = LOCAL_TIME ( 9, 6, 51.00000000000000000, #258 ) ;
#45 = CC_DESIGN_PERSON_AND_ORGANIZATION_ASSIGNMENT ( #153, #251, ( #10 ) ) ;
#46 = EDGE_CURVE ( 'NONE', #217, #33, #49, .T. ) ;
#47 = COORDINATED_UNIVERSAL_TIME_OFFSET ( 8, 0, .AHEAD. ) ;
#48 = DIRECTION ( 'NONE',  ( -1.000000000000000000, 9.900717937117242800E-016, -0.0000000000000000000 ) ) ;
#49 = CIRCLE ( 'NONE', #90, 11.89123909753875300 ) ;
#50 = DIRECTION ( 'NONE',  ( 0.0000000000000000000, 0.0000000000000000000, 1.000000000000000000 ) ) ;
#51 = CARTESIAN_POINT ( 'NONE',  ( 43.54832370800325200, 23.92525247203978700, 0.0000000000000000000 ) ) ;
#52 = LOCAL_TIME ( 9, 6, 51.00000000000000000, #229 ) ;
#53 = UNCERTAINTY_MEASURE_WITH_UNIT (LENGTH_MEASURE( 1.000000000000000100E-005 ), #267, 'distance_accuracy_value', 'NONE');
#54 = LOCAL_TIME ( 9, 6, 51.00000000000000000, #72 ) ;
#55 = CALENDAR_DATE ( 2019, 25, 6 ) ;
#56 = CARTESIAN_POINT ( 'NONE',  ( 51.66460105072346900, 23.92525247203978400, 0.0000000000000000000 ) ) ;
#57 = CALENDAR_DATE ( 2019, 25, 6 ) ;
#58 = CC_DESIGN_PERSON_AND_ORGANIZATION_ASSIGNMENT ( #162, #41, ( #219 ) ) ;
#59 = DATE_TIME_ROLE ( 'creation_date' ) ;
#60 = DIRECTION ( 'NONE',  ( 1.000000000000000000, 0.0000000000000000000, 0.0000000000000000000 ) ) ;
#61 = CC_DESIGN_PERSON_AND_ORGANIZATION_ASSIGNMENT ( #23, #7, ( #277 ) ) ;
#62 = CALENDAR_DATE ( 2019, 25, 6 ) ;
#63 = CALENDAR_DATE ( 2019, 25, 6 ) ;
#64 = APPROVAL ( #31, 'Î´Ö¸¶¨' ) ;
#65 = COORDINATED_UNIVERSAL_TIME_OFFSET ( 8, 0, .AHEAD. ) ;
#66 = DIRECTION ( 'NONE',  ( -1.110223024625156900E-015, -1.000000000000000000, 0.0000000000000000000 ) ) ;
#67 = DATE_AND_TIME ( #63, #52 ) ;
#68 = DIRECTION ( 'NONE',  ( -1.000000000000000000, 9.900717937117242800E-016, -0.0000000000000000000 ) ) ;
#69 = CIRCLE ( 'NONE', #20, 11.89102112676057600 ) ;
#70 = CARTESIAN_POINT ( 'NONE',  ( 41.54832370800325900, 23.92525247203978700, 0.0000000000000000000 ) ) ;
#71 = CC_DESIGN_PERSON_AND_ORGANIZATION_ASSIGNMENT ( #207, #146, ( #199 ) ) ;
#72 = COORDINATED_UNIVERSAL_TIME_OFFSET ( 8, 0, .AHEAD. ) ;
#73 = COORDINATED_UNIVERSAL_TIME_OFFSET ( 8, 0, .AHEAD. ) ;
#74 = ORIENTED_EDGE ( 'NONE', *, *, #305, .F. ) ;
#75 = DIRECTION ( 'NONE',  ( -1.110223024625157300E-015, -1.000000000000000000, 0.0000000000000000000 ) ) ;
#76 = AXIS2_PLACEMENT_3D ( 'NONE', #143, #77, #172 ) ;
#77 = DIRECTION ( 'NONE',  ( 1.212488253095141700E-031, 1.224646799147353200E-016, -1.000000000000000000 ) ) ;
#78 = PERSON_AND_ORGANIZATION ( #36, #297 ) ;
#79 = ORIENTED_EDGE ( 'NONE', *, *, #107, .T. ) ;
#80 = ORIENTED_EDGE ( 'NONE', *, *, #266, .F. ) ;
#81 = CARTESIAN_POINT ( 'NONE',  ( 39.77336195318471800, 23.92525247203979800, 0.0000000000000000000 ) ) ;
#82 = PERSON_AND_ORGANIZATION_ROLE ( 'classification_officer' ) ;
#83 = CALENDAR_DATE ( 2019, 25, 6 ) ;
#84 = PERSON_AND_ORGANIZATION_ROLE ( 'creator' ) ;
#85 = SHAPE_DEFINITION_REPRESENTATION ( #248, #190 ) ;
#86 = APPROVAL_DATE_TIME ( #202, #64 ) ;
#87 = FACE_OUTER_BOUND ( 'NONE', #93, .T. ) ;
#88 = ORIENTED_EDGE ( 'NONE', *, *, #28, .T. ) ;
#89 = CC_DESIGN_PERSON_AND_ORGANIZATION_ASSIGNMENT ( #237, #249, ( #15 ) ) ;
#90 = AXIS2_PLACEMENT_3D ( 'NONE', #95, #50, #160 ) ;
#91 = DIRECTION ( 'NONE',  ( 1.167081250623858800E-015, 1.000000000000000000, 0.0000000000000000000 ) ) ;
#92 = PERSON_AND_ORGANIZATION ( #36, #297 ) ;
#93 = EDGE_LOOP ( 'NONE', ( #287, #79, #25, #263 ) ) ;
#94 = DIRECTION ( 'NONE',  ( 1.212488253095141700E-031, 1.224646799147353200E-016, -1.000000000000000000 ) ) ;
#95 = CARTESIAN_POINT ( 'NONE',  ( 51.66460105072346900, 23.92525247203978400, 0.0000000000000000000 ) ) ;
#96 = CARTESIAN_POINT ( 'NONE',  ( 33.43230258124268800, 23.92525247203979400, 0.0000000000000000000 ) ) ;
#97 = LOCAL_TIME ( 9, 6, 51.00000000000000000, #65 ) ;
#98 = ORIENTED_EDGE ( 'NONE', *, *, #167, .F. ) ;
#99 = ADVANCED_FACE ( 'NONE', ( #40 ), #227, .T. ) ;
#100 = CARTESIAN_POINT ( 'NONE',  ( 33.43230258124268800, 23.92525247203979400, 0.0000000000000000000 ) ) ;
#101 = VECTOR ( 'NONE', #283, 1000.000000000000000 ) ;
#102 = EDGE_LOOP ( 'NONE', ( #98, #212, #80 ) ) ;
#103 = MECHANICAL_CONTEXT ( 'NONE', #183, 'mechanical' ) ;
#104 = CC_DESIGN_DATE_AND_TIME_ASSIGNMENT ( #279, #276, ( #219 ) ) ;
#105 = APPLICATION_PROTOCOL_DEFINITION ( 'international standard', 'config_control_design', 1994, #200 ) ;
#106 = PERSON_AND_ORGANIZATION_ROLE ( 'design_supplier' ) ;
#107 = EDGE_CURVE ( 'NONE', #32, #292, #145, .T. ) ;
#108 = APPROVAL_PERSON_ORGANIZATION ( #235, #118, #124 ) ;
#109 = CIRCLE ( 'NONE', #185, 11.89102112676057200 ) ;
#110 = DATE_AND_TIME ( #282, #196 ) ;
#111 = EDGE_LOOP ( 'NONE', ( #127, #24, #254 ) ) ;
#112 = MANIFOLD_SOLID_BREP ( 'Ðý×ª1', #246 ) ;
#113 = LOCAL_TIME ( 9, 6, 51.00000000000000000, #9 ) ;
#114 = CARTESIAN_POINT ( 'NONE',  ( 36.01974702770650800, 23.92525247203979400, 0.0000000000000000000 ) ) ;
#115 = CARTESIAN_POINT ( 'NONE',  ( 41.54832370800326700, 30.17525247203978000, 0.0000000000000000000 ) ) ;
#116 = CARTESIAN_POINT ( 'NONE',  ( 45.32332370800326500, 23.92525247203978400, 0.0000000000000000000 ) ) ;
#117 = DIRECTION ( 'NONE',  ( 0.0000000000000000000, 1.000000000000000000, 1.224646799147353200E-016 ) ) ;
#118 = APPROVAL ( #247, 'Î´Ö¸¶¨' ) ;
#119 = APPROVAL_PERSON_ORGANIZATION ( #261, #64, #188 ) ;
#120 = CC_DESIGN_DATE_AND_TIME_ASSIGNMENT ( #209, #165, ( #277 ) ) ;
#121 = AXIS2_PLACEMENT_3D ( 'NONE', #231, #161, #91 ) ;
#122 = SPHERICAL_SURFACE ( 'NONE', #131, 11.89102112676057200 ) ;
#123 = ADVANCED_FACE ( 'NONE', ( #21 ), #136, .T. ) ;
#124 = APPROVAL_ROLE ( '' ) ;
#125 = APPROVAL_ROLE ( '' ) ;
#126 = LOCAL_TIME ( 9, 6, 51.00000000000000000, #73 ) ;
#127 = ORIENTED_EDGE ( 'NONE', *, *, #12, .F. ) ;
#128 = APPROVAL_DATE_TIME ( #181, #184 ) ;
#129 = LINE ( 'NONE', #195, #278 ) ;
#130 = AXIS2_PLACEMENT_3D ( 'NONE', #137, #218, #11 ) ;
#131 = AXIS2_PLACEMENT_3D ( 'NONE', #214, #132, #157 ) ;
#132 = DIRECTION ( 'NONE',  ( 0.0000000000000000000, 0.0000000000000000000, -1.000000000000000000 ) ) ;
#133 = APPROVAL_PERSON_ORGANIZATION ( #174, #303, #273 ) ;
#134 = CARTESIAN_POINT ( 'NONE',  ( 36.01974702770650800, 23.92525247203979400, 0.0000000000000000000 ) ) ;
#135 = LOCAL_TIME ( 9, 6, 51.00000000000000000, #3 ) ;
#136 = SPHERICAL_SURFACE ( 'NONE', #121, 11.89102112676057200 ) ;
#137 = CARTESIAN_POINT ( 'NONE',  ( 0.0000000000000000000, 0.0000000000000000000, 0.0000000000000000000 ) ) ;
#138 = PERSON_AND_ORGANIZATION_ROLE ( 'design_supplier' ) ;
#139 = ADVANCED_FACE ( 'NONE', ( #87 ), #275, .T. ) ;
#140 = APPROVAL_PERSON_ORGANIZATION ( #92, #189, #176 ) ;
#141 = ADVANCED_FACE ( 'NONE', ( #142 ), #122, .T. ) ;
#142 = FACE_OUTER_BOUND ( 'NONE', #102, .T. ) ;
#143 = CARTESIAN_POINT ( 'NONE',  ( 51.66460105072346900, 23.92525247203978400, 0.0000000000000000000 ) ) ;
#144 = PERSON_AND_ORGANIZATION ( #36, #297 ) ;
#145 = CIRCLE ( 'NONE', #2, 6.249999999999998200 ) ;
#146 = PERSON_AND_ORGANIZATION_ROLE ( 'design_owner' ) ;
#147 = VERTEX_POINT ( 'NONE', #234 ) ;
#148 = PRODUCT_DEFINITION_SHAPE ( 'NONE', 'NONE',  #10 ) ;
#149 = PRODUCT_DEFINITION_FORMATION_WITH_SPECIFIED_SOURCE ( 'ÈÎºÎ', '', #15, .NOT_KNOWN. ) ;
#150 = APPROVAL_ROLE ( '' ) ;
#151 = APPROVAL_STATUS ( 'not_yet_approved' ) ;
#152 = AXIS2_PLACEMENT_3D ( 'NONE', #114, #30, #66 ) ;
#153 = PERSON_AND_ORGANIZATION ( #36, #297 ) ;
#154 = CC_DESIGN_DATE_AND_TIME_ASSIGNMENT ( #232, #177, ( #272 ) ) ;
#155 = CIRCLE ( 'NONE', #156, 6.249999999999998200 ) ;
#156 = AXIS2_PLACEMENT_3D ( 'NONE', #198, #187, #290 ) ;
#157 = DIRECTION ( 'NONE',  ( 1.167081250623858800E-015, 1.000000000000000000, 0.0000000000000000000 ) ) ;
#158 = COORDINATED_UNIVERSAL_TIME_OFFSET ( 8, 0, .AHEAD. ) ;
#159 = FACE_OUTER_BOUND ( 'NONE', #203, .T. ) ;
#160 = DIRECTION ( 'NONE',  ( 1.000000000000000000, 0.0000000000000000000, 0.0000000000000000000 ) ) ;
#161 = DIRECTION ( 'NONE',  ( 0.0000000000000000000, 0.0000000000000000000, -1.000000000000000000 ) ) ;
#162 = PERSON_AND_ORGANIZATION ( #36, #297 ) ;
#163 = EDGE_LOOP ( 'NONE', ( #164, #22, #74, #245 ) ) ;
#164 = ORIENTED_EDGE ( 'NONE', *, *, #266, .T. ) ;
#165 = DATE_TIME_ROLE ( 'classification_date' ) ;
#166 = CC_DESIGN_APPROVAL ( #118, ( #219 ) ) ;
#167 = EDGE_CURVE ( 'NONE', #262, #292, #109, .T. ) ;
#168 = APPROVAL_DATE_TIME ( #5, #189 ) ;
#169 = SECURITY_CLASSIFICATION_LEVEL ( 'unclassified' ) ;
#170 =( NAMED_UNIT ( * ) PLANE_ANGLE_UNIT ( ) SI_UNIT ( $, .RADIAN. ) );
#171 = DIRECTION ( 'NONE',  ( 0.0000000000000000000, 0.0000000000000000000, 1.000000000000000000 ) ) ;
#172 = DIRECTION ( 'NONE',  ( 0.0000000000000000000, 1.000000000000000000, 1.224646799147353200E-016 ) ) ;
#173 = DATE_AND_TIME ( #4, #182 ) ;
#174 = PERSON_AND_ORGANIZATION ( #36, #297 ) ;
#175 = CC_DESIGN_APPROVAL ( #189, ( #272 ) ) ;
#176 = APPROVAL_ROLE ( '' ) ;
#177 = DATE_TIME_ROLE ( 'classification_date' ) ;
#178 = CC_DESIGN_SECURITY_CLASSIFICATION ( #277, ( #149 ) ) ;
#179 =( GEOMETRIC_REPRESENTATION_CONTEXT ( 3 ) GLOBAL_UNCERTAINTY_ASSIGNED_CONTEXT ( ( #53 ) ) GLOBAL_UNIT_ASSIGNED_CONTEXT ( ( #267, #170, #293 ) ) REPRESENTATION_CONTEXT ( 'NONE', 'WORKASPACE' ) );
#180 = APPLICATION_CONTEXT ( 'configuration controlled 3d designs of mechanical parts and assemblies' ) ;
#181 = DATE_AND_TIME ( #274, #135 ) ;
#182 = LOCAL_TIME ( 9, 6, 51.00000000000000000, #206 ) ;
#183 = APPLICATION_CONTEXT ( 'configuration controlled 3d designs of mechanical parts and assemblies' ) ;
#184 = APPROVAL ( #302, 'Î´Ö¸¶¨' ) ;
#185 = AXIS2_PLACEMENT_3D ( 'NONE', #96, #94, #117 ) ;
#186 = LINE ( 'NONE', #215, #101 ) ;
#187 = DIRECTION ( 'NONE',  ( -1.000000000000000000, 9.900717937117242800E-016, -0.0000000000000000000 ) ) ;
#188 = APPROVAL_ROLE ( '' ) ;
#189 = APPROVAL ( #151, 'Î´Ö¸¶¨' ) ;
#190 = ADVANCED_BREP_SHAPE_REPRESENTATION ( '110011', ( #112, #130 ), #179 ) ;
#191 = CARTESIAN_POINT ( 'NONE',  ( 43.54832370800324500, 17.67525247203977700, -7.654042494670965500E-016 ) ) ;
#192 = CC_DESIGN_PERSON_AND_ORGANIZATION_ASSIGNMENT ( #144, #18, ( #149 ) ) ;
#193 = DESIGN_CONTEXT ( 'detailed design', #200, 'design' ) ;
#194 = PERSON_AND_ORGANIZATION ( #36, #297 ) ;
#195 = CARTESIAN_POINT ( 'NONE',  ( 36.01974702770651500, 30.17525247203979100, 7.654042494670955600E-016 ) ) ;
#196 = LOCAL_TIME ( 9, 6, 51.00000000000000000, #47 ) ;
#197 = DIRECTION ( 'NONE',  ( 1.000000000000000000, 0.0000000000000000000, 0.0000000000000000000 ) ) ;
#198 = CARTESIAN_POINT ( 'NONE',  ( 43.54832370800325200, 23.92525247203978700, 0.0000000000000000000 ) ) ;
#199 = PRODUCT ( '110011', '110011', '', ( #301 ) ) ;
#200 = APPLICATION_CONTEXT ( 'configuration controlled 3d designs of mechanical parts and assemblies' ) ;
#201 = APPLICATION_PROTOCOL_DEFINITION ( 'international standard', 'config_control_design', 1994, #180 ) ;
#202 = DATE_AND_TIME ( #62, #97 ) ;
#203 = EDGE_LOOP ( 'NONE', ( #222, #88, #280 ) ) ;
#204 = APPROVAL_STATUS ( 'not_yet_approved' ) ;
#205 = AXIS2_PLACEMENT_3D ( 'NONE', #70, #8, #75 ) ;
#206 = COORDINATED_UNIVERSAL_TIME_OFFSET ( 8, 0, .AHEAD. ) ;
#207 = PERSON_AND_ORGANIZATION ( #36, #297 ) ;
#208 = CC_DESIGN_APPROVAL ( #303, ( #10 ) ) ;
#209 = DATE_AND_TIME ( #83, #54 ) ;
#210 = DESIGN_CONTEXT ( 'detailed design', #180, 'design' ) ;
#211 = CIRCLE ( 'NONE', #213, 6.249999999999995600 ) ;
#212 = ORIENTED_EDGE ( 'NONE', *, *, #12, .T. ) ;
#213 = AXIS2_PLACEMENT_3D ( 'NONE', #270, #38, #298 ) ;
#214 = CARTESIAN_POINT ( 'NONE',  ( 33.43230258124268800, 23.92525247203979400, 0.0000000000000000000 ) ) ;
#215 = CARTESIAN_POINT ( 'NONE',  ( 36.01974702770650100, 17.67525247203979400, 0.0000000000000000000 ) ) ;
#216 = APPROVAL_PERSON_ORGANIZATION ( #242, #184, #150 ) ;
#217 = VERTEX_POINT ( 'NONE', #115 ) ;
#218 = DIRECTION ( 'NONE',  ( 0.0000000000000000000, 0.0000000000000000000, 1.000000000000000000 ) ) ;
#219 = PRODUCT_DEFINITION ( 'Î´Öª', '', #149, #193 ) ;
#220 = EDGE_CURVE ( 'NONE', #292, #147, #186, .T. ) ;
#221 = PERSON_AND_ORGANIZATION ( #36, #297 ) ;
#222 = ORIENTED_EDGE ( 'NONE', *, *, #289, .T. ) ;
#223 = CC_DESIGN_APPROVAL ( #281, ( #238 ) ) ;
#224 = SECURITY_CLASSIFICATION_LEVEL ( 'unclassified' ) ;
#225 = CC_DESIGN_PERSON_AND_ORGANIZATION_ASSIGNMENT ( #221, #138, ( #149 ) ) ;
#226 = APPLICATION_PROTOCOL_DEFINITION ( 'international standard', 'config_control_design', 1994, #42 ) ;
#227 = SPHERICAL_SURFACE ( 'NONE', #233, 11.89123909753875300 ) ;
#228 = APPROVAL_DATE_TIME ( #110, #118 ) ;
#229 = COORDINATED_UNIVERSAL_TIME_OFFSET ( 8, 0, .AHEAD. ) ;
#230 = AXIS2_PLACEMENT_3D ( 'NONE', #265, #39, #60 ) ;
#231 = CARTESIAN_POINT ( 'NONE',  ( 33.43230258124268800, 23.92525247203979400, 0.0000000000000000000 ) ) ;
#232 = DATE_AND_TIME ( #57, #291 ) ;
#233 = AXIS2_PLACEMENT_3D ( 'NONE', #56, #271, #260 ) ;
#234 = CARTESIAN_POINT ( 'NONE',  ( 41.54832370800325200, 17.67525247203979800, -7.654042494670953700E-016 ) ) ;
#235 = PERSON_AND_ORGANIZATION ( #36, #297 ) ;
#236 = CARTESIAN_POINT ( 'NONE',  ( 51.66460105072346900, 23.92525247203978400, 0.0000000000000000000 ) ) ;
#237 = PERSON_AND_ORGANIZATION ( #36, #297 ) ;
#238 = PRODUCT_DEFINITION_FORMATION_WITH_SPECIFIED_SOURCE ( 'ÈÎºÎ', '', #199, .NOT_KNOWN. ) ;
#239 = ADVANCED_FACE ( 'NONE', ( #159 ), #259, .T. ) ;
#240 = PRODUCT_RELATED_PRODUCT_CATEGORY ( 'detail', '', ( #15 ) ) ;
#241 = ADVANCED_FACE ( 'NONE', ( #14 ), #284, .T. ) ;
#242 = PERSON_AND_ORGANIZATION ( #36, #297 ) ;
#243 = PERSON_AND_ORGANIZATION ( #36, #297 ) ;
#244 = DATE_AND_TIME ( #268, #113 ) ;
#245 = ORIENTED_EDGE ( 'NONE', *, *, #220, .F. ) ;
#246 = CLOSED_SHELL ( 'NONE', ( #241, #123, #239, #99, #141, #139 ) ) ;
#247 = APPROVAL_STATUS ( 'not_yet_approved' ) ;
#248 = PRODUCT_DEFINITION_SHAPE ( 'NONE', 'NONE',  #219 ) ;
#249 = PERSON_AND_ORGANIZATION_ROLE ( 'design_owner' ) ;
#250 = CC_DESIGN_APPROVAL ( #184, ( #149 ) ) ;
#251 = PERSON_AND_ORGANIZATION_ROLE ( 'creator' ) ;
#252 = AXIS2_PLACEMENT_3D ( 'NONE', #236, #29, #285 ) ;
#253 = CALENDAR_DATE ( 2019, 25, 6 ) ;
#254 = ORIENTED_EDGE ( 'NONE', *, *, #107, .F. ) ;
#255 = CC_DESIGN_PERSON_AND_ORGANIZATION_ASSIGNMENT ( #194, #84, ( #238 ) ) ;
#256 = AXIS2_PLACEMENT_3D ( 'NONE', #134, #68, #27 ) ;
#257 = DIRECTION ( 'NONE',  ( -1.110223024625156900E-015, -1.000000000000000000, 0.0000000000000000000 ) ) ;
#258 = COORDINATED_UNIVERSAL_TIME_OFFSET ( 8, 0, .AHEAD. ) ;
#259 = SPHERICAL_SURFACE ( 'NONE', #252, 11.89123909753875300 ) ;
#260 = DIRECTION ( 'NONE',  ( 1.167059857596075100E-015, 1.000000000000000000, 0.0000000000000000000 ) ) ;
#261 = PERSON_AND_ORGANIZATION ( #36, #297 ) ;
#262 = VERTEX_POINT ( 'NONE', #116 ) ;
#263 = ORIENTED_EDGE ( 'NONE', *, *, #289, .F. ) ;
#264 = CC_DESIGN_DATE_AND_TIME_ASSIGNMENT ( #173, #59, ( #10 ) ) ;
#265 = CARTESIAN_POINT ( 'NONE',  ( 0.0000000000000000000, 0.0000000000000000000, 0.0000000000000000000 ) ) ;
#266 = EDGE_CURVE ( 'NONE', #292, #32, #155, .T. ) ;
#267 =( LENGTH_UNIT ( ) NAMED_UNIT ( * ) SI_UNIT ( .MILLI., .METRE. ) );
#268 = CALENDAR_DATE ( 2019, 25, 6 ) ;
#269 = CIRCLE ( 'NONE', #205, 6.249999999999995600 ) ;
#270 = CARTESIAN_POINT ( 'NONE',  ( 41.54832370800325900, 23.92525247203978700, 0.0000000000000000000 ) ) ;
#271 = DIRECTION ( 'NONE',  ( 0.0000000000000000000, 0.0000000000000000000, -1.000000000000000000 ) ) ;
#272 = SECURITY_CLASSIFICATION ( '', '', #224 ) ;
#273 = APPROVAL_ROLE ( '' ) ;
#274 = CALENDAR_DATE ( 2019, 25, 6 ) ;
#275 = CYLINDRICAL_SURFACE ( 'NONE', #152, 6.249999999999998200 ) ;
#276 = DATE_TIME_ROLE ( 'creation_date' ) ;
#277 = SECURITY_CLASSIFICATION ( '', '', #169 ) ;
#278 = VECTOR ( 'NONE', #294, 1000.000000000000000 ) ;
#279 = DATE_AND_TIME ( #253, #126 ) ;
#280 = ORIENTED_EDGE ( 'NONE', *, *, #46, .F. ) ;
#281 = APPROVAL ( #17, 'Î´Ö¸¶¨' ) ;
#282 = CALENDAR_DATE ( 2019, 25, 6 ) ;
#283 = DIRECTION ( 'NONE',  ( -1.000000000000000000, 9.900717937117242800E-016, -0.0000000000000000000 ) ) ;
#284 = CYLINDRICAL_SURFACE ( 'NONE', #256, 6.249999999999998200 ) ;
#285 = DIRECTION ( 'NONE',  ( 1.167059857596075100E-015, 1.000000000000000000, 0.0000000000000000000 ) ) ;
#286 = EDGE_LOOP ( 'NONE', ( #300, #19, #37 ) ) ;
#287 = ORIENTED_EDGE ( 'NONE', *, *, #34, .F. ) ;
#288 = CC_DESIGN_PERSON_AND_ORGANIZATION_ASSIGNMENT ( #243, #82, ( #272 ) ) ;
#289 = EDGE_CURVE ( 'NONE', #217, #147, #269, .T. ) ;
#290 = DIRECTION ( 'NONE',  ( -1.110223024625156900E-015, -1.000000000000000000, 0.0000000000000000000 ) ) ;
#291 = LOCAL_TIME ( 9, 6, 51.00000000000000000, #158 ) ;
#292 = VERTEX_POINT ( 'NONE', #191 ) ;
#293 =( NAMED_UNIT ( * ) SI_UNIT ( $, .STERADIAN. ) SOLID_ANGLE_UNIT ( ) );
#294 = DIRECTION ( 'NONE',  ( -1.000000000000000000, 9.900717937117242800E-016, -0.0000000000000000000 ) ) ;
#295 = CARTESIAN_POINT ( 'NONE',  ( 43.54832370800325900, 30.17525247203979400, 0.0000000000000000000 ) ) ;
#296 = APPROVAL_DATE_TIME ( #67, #303 ) ;
#297 = ORGANIZATION ( 'Î´Ö¸¶¨', 'Î´Ö¸¶¨', '' ) ;
#298 = DIRECTION ( 'NONE',  ( -1.110223024625157300E-015, -1.000000000000000000, 0.0000000000000000000 ) ) ;
#299 = CC_DESIGN_APPROVAL ( #64, ( #277 ) ) ;
#300 = ORIENTED_EDGE ( 'NONE', *, *, #28, .F. ) ;
#301 = MECHANICAL_CONTEXT ( 'NONE', #42, 'mechanical' ) ;
#302 = APPROVAL_STATUS ( 'not_yet_approved' ) ;
#303 = APPROVAL ( #204, 'Î´Ö¸¶¨' ) ;
#304 = PERSON_AND_ORGANIZATION ( #36, #297 ) ;
#305 = EDGE_CURVE ( 'NONE', #147, #217, #211, .T. ) ;
ENDSEC;
END-ISO-10303-21;
