ISO-10303-21;
HEADER;
FILE_DESCRIPTION (( 'STEP AP214' ),
    '1' );
FILE_NAME ('100490.STEP',
    '2019-06-12T05:31:49',
    ( '' ),
    ( '' ),
    'SwSTEP 2.0',
    'SolidWorks 2016',
    '' );
FILE_SCHEMA (( 'AUTOMOTIVE_DESIGN' ));
ENDSEC;

DATA;
#1 =( NAMED_UNIT ( * ) PLANE_ANGLE_UNIT ( ) SI_UNIT ( $, .RADIAN. ) );
#2 = CARTESIAN_POINT ( 'NONE',  ( 48.32668043724989100, 26.09342197056487900, 0.0000000000000000000 ) ) ;
#3 = DIRECTION ( 'NONE',  ( -1.000000000000000000, -0.0000000000000000000, -0.0000000000000000000 ) ) ;
#4 = EDGE_CURVE ( 'NONE', #59, #184, #82, .T. ) ;
#5 = EDGE_LOOP ( 'NONE', ( #145, #65, #34, #88 ) ) ;
#6 = ADVANCED_BREP_SHAPE_REPRESENTATION ( '100490', ( #125, #181 ), #49 ) ;
#7 = SPHERICAL_SURFACE ( 'NONE', #149, 100.9062500000000900 ) ;
#8 = EDGE_LOOP ( 'NONE', ( #52, #97 ) ) ;
#9 = ORIENTED_EDGE ( 'NONE', *, *, #101, .T. ) ;
#10 = DIRECTION ( 'NONE',  ( 0.0000000000000000000, 0.0000000000000000000, -1.000000000000000000 ) ) ;
#11 = CIRCLE ( 'NONE', #147, 6.349999999999997900 ) ;
#12 = CIRCLE ( 'NONE', #26, 6.349999999999997900 ) ;
#13 = CARTESIAN_POINT ( 'NONE',  ( -52.37956956275019100, 26.09342197056487900, 0.0000000000000000000 ) ) ;
#14 = DIRECTION ( 'NONE',  ( -1.000000000000000000, -0.0000000000000000000, -0.0000000000000000000 ) ) ;
#15 = CARTESIAN_POINT ( 'NONE',  ( 44.06614929139537700, 26.09342197056487900, 6.349999999999997900 ) ) ;
#16 = DIRECTION ( 'NONE',  ( 0.0000000000000000000, 0.0000000000000000000, 1.000000000000000000 ) ) ;
#17 = PRESENTATION_LAYER_ASSIGNMENT (  '', '', ( #124 ) ) ;
#18 = CARTESIAN_POINT ( 'NONE',  ( 44.06614929139537700, 26.09342197056487900, 0.0000000000000000000 ) ) ;
#19 = FACE_OUTER_BOUND ( 'NONE', #25, .T. ) ;
#20 = CARTESIAN_POINT ( 'NONE',  ( 44.06614929139537700, 26.09342197056487900, -6.349999999999997900 ) ) ;
#21 = APPLICATION_PROTOCOL_DEFINITION ( 'draft international standard', 'automotive_design', 1998, #134 ) ;
#22 = PRODUCT_DEFINITION ( 'Î´Öª', '', #33, #182 ) ;
#23 = DIRECTION ( 'NONE',  ( -1.000000000000000000, -0.0000000000000000000, -0.0000000000000000000 ) ) ;
#24 = PLANE ( 'NONE',  #64 ) ;
#25 = EDGE_LOOP ( 'NONE', ( #161, #127, #70, #48 ) ) ;
#26 = AXIS2_PLACEMENT_3D ( 'NONE', #43, #183, #73 ) ;
#27 = DIRECTION ( 'NONE',  ( 0.0000000000000000000, 1.000000000000000000, 0.0000000000000000000 ) ) ;
#28 = FACE_OUTER_BOUND ( 'NONE', #8, .T. ) ;
#29 = FILL_AREA_STYLE ('',( #173 ) ) ;
#30 = DIRECTION ( 'NONE',  ( 0.0000000000000000000, 0.0000000000000000000, 1.000000000000000000 ) ) ;
#31 = DIRECTION ( 'NONE',  ( 0.0000000000000000000, 1.000000000000000000, 1.224646799147353200E-016 ) ) ;
#32 = DIRECTION ( 'NONE',  ( -0.0000000000000000000, 0.0000000000000000000, -1.000000000000000000 ) ) ;
#33 = PRODUCT_DEFINITION_FORMATION_WITH_SPECIFIED_SOURCE ( 'ÈÎºÎ', '', #86, .NOT_KNOWN. ) ;
#34 = ORIENTED_EDGE ( 'NONE', *, *, #101, .F. ) ;
#35 = AXIS2_PLACEMENT_3D ( 'NONE', #18, #146, #30 ) ;
#36 = ORIENTED_EDGE ( 'NONE', *, *, #107, .F. ) ;
#37 = CIRCLE ( 'NONE', #117, 6.349999999999997900 ) ;
#38 = DIRECTION ( 'NONE',  ( 0.0000000000000000000, 0.0000000000000000000, 1.000000000000000000 ) ) ;
#39 = DIRECTION ( 'NONE',  ( 0.0000000000000000000, 0.0000000000000000000, 1.000000000000000000 ) ) ;
#40 = ORIENTED_EDGE ( 'NONE', *, *, #42, .F. ) ;
#41 = FACE_OUTER_BOUND ( 'NONE', #84, .T. ) ;
#42 = EDGE_CURVE ( 'NONE', #59, #166, #139, .T. ) ;
#43 = CARTESIAN_POINT ( 'NONE',  ( 48.32668043724989100, 26.09342197056487900, 0.0000000000000000000 ) ) ;
#44 = ORIENTED_EDGE ( 'NONE', *, *, #138, .T. ) ;
#45 = SURFACE_STYLE_USAGE ( .BOTH. , #62 ) ;
#46 = CARTESIAN_POINT ( 'NONE',  ( 0.0000000000000000000, 0.0000000000000000000, 0.0000000000000000000 ) ) ;
#47 = DIRECTION ( 'NONE',  ( 0.0000000000000000000, 1.224646799147353200E-016, -1.000000000000000000 ) ) ;
#48 = ORIENTED_EDGE ( 'NONE', *, *, #143, .F. ) ;
#49 =( GEOMETRIC_REPRESENTATION_CONTEXT ( 3 ) GLOBAL_UNCERTAINTY_ASSIGNED_CONTEXT ( ( #103 ) ) GLOBAL_UNIT_ASSIGNED_CONTEXT ( ( #151, #1, #118 ) ) REPRESENTATION_CONTEXT ( 'NONE', 'WORKASPACE' ) );
#50 = DIRECTION ( 'NONE',  ( -1.000000000000000000, -0.0000000000000000000, -0.0000000000000000000 ) ) ;
#51 =( NAMED_UNIT ( * ) SI_UNIT ( $, .STERADIAN. ) SOLID_ANGLE_UNIT ( ) );
#52 = ORIENTED_EDGE ( 'NONE', *, *, #107, .T. ) ;
#53 = PRODUCT_CONTEXT ( 'NONE', #186, 'mechanical' ) ;
#54 = DIRECTION ( 'NONE',  ( 1.000000000000000000, 0.0000000000000000000, 0.0000000000000000000 ) ) ;
#55 = VERTEX_POINT ( 'NONE', #98 ) ;
#56 = PRESENTATION_LAYER_ASSIGNMENT (  '', '', ( #128 ) ) ;
#57 = EDGE_CURVE ( 'NONE', #166, #158, #109, .T. ) ;
#58 = DIRECTION ( 'NONE',  ( -1.000000000000000000, -0.0000000000000000000, -0.0000000000000000000 ) ) ;
#59 = VERTEX_POINT ( 'NONE', #137 ) ;
#60 = UNCERTAINTY_MEASURE_WITH_UNIT (LENGTH_MEASURE( 1.000000000000000100E-005 ), #108, 'distance_accuracy_value', 'NONE');
#61 = CARTESIAN_POINT ( 'NONE',  ( 46.32668043724989100, 26.09342197056487900, -6.349999999999997900 ) ) ;
#62 = SURFACE_SIDE_STYLE ('',( #132 ) ) ;
#63 = CIRCLE ( 'NONE', #99, 100.9062500000000900 ) ;
#64 = AXIS2_PLACEMENT_3D ( 'NONE', #156, #104, #10 ) ;
#65 = ORIENTED_EDGE ( 'NONE', *, *, #83, .T. ) ;
#66 = UNCERTAINTY_MEASURE_WITH_UNIT (LENGTH_MEASURE( 1.000000000000000100E-005 ), #85, 'distance_accuracy_value', 'NONE');
#67 = MECHANICAL_DESIGN_GEOMETRIC_PRESENTATION_REPRESENTATION (  '', ( #128 ), #81 ) ;
#68 = SURFACE_STYLE_FILL_AREA ( #29 ) ;
#69 = DIRECTION ( 'NONE',  ( -1.000000000000000000, -0.0000000000000000000, -0.0000000000000000000 ) ) ;
#70 = ORIENTED_EDGE ( 'NONE', *, *, #4, .F. ) ;
#71 = CARTESIAN_POINT ( 'NONE',  ( -52.37956956275019100, 26.09342197056487900, 0.0000000000000000000 ) ) ;
#72 = SHAPE_DEFINITION_REPRESENTATION ( #144, #6 ) ;
#73 = DIRECTION ( 'NONE',  ( 0.0000000000000000000, 0.0000000000000000000, 1.000000000000000000 ) ) ;
#74 = PRODUCT_RELATED_PRODUCT_CATEGORY ( 'part', '', ( #86 ) ) ;
#75 = CARTESIAN_POINT ( 'NONE',  ( 48.32668043724988400, 19.74342197056480000, -7.776507174585792700E-016 ) ) ;
#76 = APPLICATION_PROTOCOL_DEFINITION ( 'draft international standard', 'automotive_design', 1998, #186 ) ;
#77 =( NAMED_UNIT ( * ) PLANE_ANGLE_UNIT ( ) SI_UNIT ( $, .RADIAN. ) );
#78 = VERTEX_POINT ( 'NONE', #169 ) ;
#79 = CARTESIAN_POINT ( 'NONE',  ( -52.37956956275019100, 26.09342197056487900, 0.0000000000000000000 ) ) ;
#80 = CYLINDRICAL_SURFACE ( 'NONE', #155, 6.349999999999997900 ) ;
#81 =( GEOMETRIC_REPRESENTATION_CONTEXT ( 3 ) GLOBAL_UNCERTAINTY_ASSIGNED_CONTEXT ( ( #66 ) ) GLOBAL_UNIT_ASSIGNED_CONTEXT ( ( #85, #113, #51 ) ) REPRESENTATION_CONTEXT ( 'NONE', 'WORKASPACE' ) );
#82 = CIRCLE ( 'NONE', #135, 6.349999999999997900 ) ;
#83 = EDGE_CURVE ( 'NONE', #174, #78, #165, .T. ) ;
#84 = EDGE_LOOP ( 'NONE', ( #153, #95, #36, #93, #9 ) ) ;
#85 =( LENGTH_UNIT ( ) NAMED_UNIT ( * ) SI_UNIT ( .MILLI., .METRE. ) );
#86 = PRODUCT ( '100490', '100490', '', ( #53 ) ) ;
#87 = ORIENTED_EDGE ( 'NONE', *, *, #57, .F. ) ;
#88 = ORIENTED_EDGE ( 'NONE', *, *, #138, .F. ) ;
#89 = DIRECTION ( 'NONE',  ( 1.000000000000000000, 0.0000000000000000000, 0.0000000000000000000 ) ) ;
#90 = DIRECTION ( 'NONE',  ( -0.0000000000000000000, 0.0000000000000000000, 1.000000000000000000 ) ) ;
#91 = FILL_AREA_STYLE ('',( #159 ) ) ;
#92 = CARTESIAN_POINT ( 'NONE',  ( 46.32668043724989100, 26.09342197056487900, 6.349999999999997900 ) ) ;
#93 = ORIENTED_EDGE ( 'NONE', *, *, #168, .F. ) ;
#94 =( NAMED_UNIT ( * ) SI_UNIT ( $, .STERADIAN. ) SOLID_ANGLE_UNIT ( ) );
#95 = ORIENTED_EDGE ( 'NONE', *, *, #42, .T. ) ;
#96 = DIRECTION ( 'NONE',  ( -1.000000000000000000, -0.0000000000000000000, -0.0000000000000000000 ) ) ;
#97 = ORIENTED_EDGE ( 'NONE', *, *, #57, .T. ) ;
#98 = CARTESIAN_POINT ( 'NONE',  ( 48.32668043724989100, 26.09342197056487900, 6.349999999999997900 ) ) ;
#99 = AXIS2_PLACEMENT_3D ( 'NONE', #13, #47, #31 ) ;
#100 = SPHERICAL_SURFACE ( 'NONE', #157, 100.9062500000000900 ) ;
#101 = EDGE_CURVE ( 'NONE', #55, #78, #12, .T. ) ;
#102 = ADVANCED_FACE ( 'NONE', ( #28 ), #24, .F. ) ;
#103 = UNCERTAINTY_MEASURE_WITH_UNIT (LENGTH_MEASURE( 1.000000000000000100E-005 ), #151, 'distance_accuracy_value', 'NONE');
#104 = DIRECTION ( 'NONE',  ( 1.000000000000000000, 0.0000000000000000000, 0.0000000000000000000 ) ) ;
#105 = PRESENTATION_STYLE_ASSIGNMENT (( #45 ) ) ;
#106 = PRESENTATION_STYLE_ASSIGNMENT (( #167 ) ) ;
#107 = EDGE_CURVE ( 'NONE', #158, #166, #176, .T. ) ;
#108 =( LENGTH_UNIT ( ) NAMED_UNIT ( * ) SI_UNIT ( .MILLI., .METRE. ) );
#109 = CIRCLE ( 'NONE', #177, 6.349999999999997900 ) ;
#110 = DIRECTION ( 'NONE',  ( 0.0000000000000000000, 0.0000000000000000000, 1.000000000000000000 ) ) ;
#111 = DIRECTION ( 'NONE',  ( -1.000000000000000000, -0.0000000000000000000, -0.0000000000000000000 ) ) ;
#112 = DIRECTION ( 'NONE',  ( -0.0000000000000000000, 0.0000000000000000000, -1.000000000000000000 ) ) ;
#113 =( NAMED_UNIT ( * ) PLANE_ANGLE_UNIT ( ) SI_UNIT ( $, .RADIAN. ) );
#114 = AXIS2_PLACEMENT_3D ( 'NONE', #71, #90, #89 ) ;
#115 = DIRECTION ( 'NONE',  ( 0.0000000000000000000, 0.0000000000000000000, 1.000000000000000000 ) ) ;
#116 = AXIS2_PLACEMENT_3D ( 'NONE', #175, #50, #16 ) ;
#117 = AXIS2_PLACEMENT_3D ( 'NONE', #2, #111, #131 ) ;
#118 =( NAMED_UNIT ( * ) SI_UNIT ( $, .STERADIAN. ) SOLID_ANGLE_UNIT ( ) );
#119 = FACE_OUTER_BOUND ( 'NONE', #5, .T. ) ;
#120 = CLOSED_SHELL ( 'NONE', ( #171, #185, #142, #129, #102 ) ) ;
#121 = COLOUR_RGB ( '',1.000000000000000000, 1.000000000000000000, 1.000000000000000000 ) ;
#122 = EDGE_CURVE ( 'NONE', #174, #184, #63, .T. ) ;
#123 = CYLINDRICAL_SURFACE ( 'NONE', #35, 6.349999999999997900 ) ;
#124 = STYLED_ITEM ( 'NONE', ( #105 ), #125 ) ;
#125 = MANIFOLD_SOLID_BREP ( 'Ðý×ª1', #120 ) ;
#126 = CARTESIAN_POINT ( 'NONE',  ( 46.32668043724989100, 26.09342197056487900, 0.0000000000000000000 ) ) ;
#127 = ORIENTED_EDGE ( 'NONE', *, *, #122, .T. ) ;
#128 = STYLED_ITEM ( 'NONE', ( #106 ), #6 ) ;
#129 = ADVANCED_FACE ( 'NONE', ( #141 ), #80, .T. ) ;
#130 = ORIENTED_EDGE ( 'NONE', *, *, #4, .T. ) ;
#131 = DIRECTION ( 'NONE',  ( 0.0000000000000000000, 0.0000000000000000000, 1.000000000000000000 ) ) ;
#132 = SURFACE_STYLE_FILL_AREA ( #91 ) ;
#133 =( GEOMETRIC_REPRESENTATION_CONTEXT ( 3 ) GLOBAL_UNCERTAINTY_ASSIGNED_CONTEXT ( ( #60 ) ) GLOBAL_UNIT_ASSIGNED_CONTEXT ( ( #108, #77, #94 ) ) REPRESENTATION_CONTEXT ( 'NONE', 'WORKASPACE' ) );
#134 = APPLICATION_CONTEXT ( 'automotive_design' ) ;
#135 = AXIS2_PLACEMENT_3D ( 'NONE', #178, #96, #180 ) ;
#136 = SURFACE_SIDE_STYLE ('',( #68 ) ) ;
#137 = CARTESIAN_POINT ( 'NONE',  ( 48.32668043724989100, 26.09342197056487900, -6.349999999999997900 ) ) ;
#138 = EDGE_CURVE ( 'NONE', #184, #55, #11, .T. ) ;
#139 = LINE ( 'NONE', #20, #154 ) ;
#140 = LINE ( 'NONE', #15, #164 ) ;
#141 = FACE_OUTER_BOUND ( 'NONE', #170, .T. ) ;
#142 = ADVANCED_FACE ( 'NONE', ( #119 ), #7, .T. ) ;
#143 = EDGE_CURVE ( 'NONE', #78, #59, #37, .T. ) ;
#144 = PRODUCT_DEFINITION_SHAPE ( 'NONE', 'NONE',  #22 ) ;
#145 = ORIENTED_EDGE ( 'NONE', *, *, #122, .F. ) ;
#146 = DIRECTION ( 'NONE',  ( -1.000000000000000000, -0.0000000000000000000, -0.0000000000000000000 ) ) ;
#147 = AXIS2_PLACEMENT_3D ( 'NONE', #172, #14, #110 ) ;
#148 = DIRECTION ( 'NONE',  ( 0.0000000000000000000, 1.000000000000000000, 0.0000000000000000000 ) ) ;
#149 = AXIS2_PLACEMENT_3D ( 'NONE', #79, #112, #27 ) ;
#150 = CARTESIAN_POINT ( 'NONE',  ( -52.37956956275019100, 26.09342197056487900, 0.0000000000000000000 ) ) ;
#151 =( LENGTH_UNIT ( ) NAMED_UNIT ( * ) SI_UNIT ( .MILLI., .METRE. ) );
#152 = MECHANICAL_DESIGN_GEOMETRIC_PRESENTATION_REPRESENTATION (  '', ( #124 ), #133 ) ;
#153 = ORIENTED_EDGE ( 'NONE', *, *, #143, .T. ) ;
#154 = VECTOR ( 'NONE', #69, 1000.000000000000000 ) ;
#155 = AXIS2_PLACEMENT_3D ( 'NONE', #163, #3, #115 ) ;
#156 = CARTESIAN_POINT ( 'NONE',  ( 46.32668043724989100, 26.09342197056487900, 0.0000000000000000000 ) ) ;
#157 = AXIS2_PLACEMENT_3D ( 'NONE', #150, #32, #148 ) ;
#158 = VERTEX_POINT ( 'NONE', #92 ) ;
#159 = FILL_AREA_STYLE_COLOUR ( '', #121 ) ;
#160 = COLOUR_RGB ( '',1.000000000000000000, 1.000000000000000000, 1.000000000000000000 ) ;
#161 = ORIENTED_EDGE ( 'NONE', *, *, #83, .F. ) ;
#162 = CARTESIAN_POINT ( 'NONE',  ( 48.52668043724989400, 26.09342197056488600, 0.0000000000000000000 ) ) ;
#163 = CARTESIAN_POINT ( 'NONE',  ( 44.06614929139537700, 26.09342197056487900, 0.0000000000000000000 ) ) ;
#164 = VECTOR ( 'NONE', #58, 1000.000000000000000 ) ;
#165 = CIRCLE ( 'NONE', #114, 100.9062500000000900 ) ;
#166 = VERTEX_POINT ( 'NONE', #61 ) ;
#167 = SURFACE_STYLE_USAGE ( .BOTH. , #136 ) ;
#168 = EDGE_CURVE ( 'NONE', #55, #158, #140, .T. ) ;
#169 = CARTESIAN_POINT ( 'NONE',  ( 48.32668043724988400, 32.44342197056496200, 0.0000000000000000000 ) ) ;
#170 = EDGE_LOOP ( 'NONE', ( #40, #130, #44, #179, #87 ) ) ;
#171 = ADVANCED_FACE ( 'NONE', ( #41 ), #123, .T. ) ;
#172 = CARTESIAN_POINT ( 'NONE',  ( 48.32668043724989100, 26.09342197056487900, 0.0000000000000000000 ) ) ;
#173 = FILL_AREA_STYLE_COLOUR ( '', #160 ) ;
#174 = VERTEX_POINT ( 'NONE', #162 ) ;
#175 = CARTESIAN_POINT ( 'NONE',  ( 46.32668043724989100, 26.09342197056487900, 0.0000000000000000000 ) ) ;
#176 = CIRCLE ( 'NONE', #116, 6.349999999999997900 ) ;
#177 = AXIS2_PLACEMENT_3D ( 'NONE', #126, #23, #39 ) ;
#178 = CARTESIAN_POINT ( 'NONE',  ( 48.32668043724989100, 26.09342197056487900, 0.0000000000000000000 ) ) ;
#179 = ORIENTED_EDGE ( 'NONE', *, *, #168, .T. ) ;
#180 = DIRECTION ( 'NONE',  ( 0.0000000000000000000, 0.0000000000000000000, 1.000000000000000000 ) ) ;
#181 = AXIS2_PLACEMENT_3D ( 'NONE', #46, #38, #54 ) ;
#182 = PRODUCT_DEFINITION_CONTEXT ( 'detailed design', #134, 'design' ) ;
#183 = DIRECTION ( 'NONE',  ( -1.000000000000000000, -0.0000000000000000000, -0.0000000000000000000 ) ) ;
#184 = VERTEX_POINT ( 'NONE', #75 ) ;
#185 = ADVANCED_FACE ( 'NONE', ( #19 ), #100, .T. ) ;
#186 = APPLICATION_CONTEXT ( 'automotive_design' ) ;
ENDSEC;
END-ISO-10303-21;
