ISO-10303-21;
HEADER;
FILE_DESCRIPTION (( 'STEP AP214' ),
    '1' );
FILE_NAME ('100452.STEP',
    '2019-06-10T02:43:29',
    ( '' ),
    ( '' ),
    'SwSTEP 2.0',
    'SolidWorks 2016',
    '' );
FILE_SCHEMA (( 'AUTOMOTIVE_DESIGN' ));
ENDSEC;

DATA;
#1 = DIRECTION ( 'NONE',  ( 0.0000000000000000000, 0.0000000000000000000, 1.000000000000000000 ) ) ;
#2 = DIRECTION ( 'NONE',  ( -1.000000000000000000, -0.0000000000000000000, -0.0000000000000000000 ) ) ;
#3 = CARTESIAN_POINT ( 'NONE',  ( 853.4765778448208900, 273.0887457172101400, 0.0000000000000000000 ) ) ;
#4 =( NAMED_UNIT ( * ) PLANE_ANGLE_UNIT ( ) SI_UNIT ( $, .RADIAN. ) );
#5 = VERTEX_POINT ( 'NONE', #50 ) ;
#6 = ORIENTED_EDGE ( 'NONE', *, *, #40, .F. ) ;
#7 = DIRECTION ( 'NONE',  ( 1.000000000000000000, 0.0000000000000000000, 0.0000000000000000000 ) ) ;
#8 = ORIENTED_EDGE ( 'NONE', *, *, #89, .F. ) ;
#9 =( GEOMETRIC_REPRESENTATION_CONTEXT ( 3 ) GLOBAL_UNCERTAINTY_ASSIGNED_CONTEXT ( ( #163 ) ) GLOBAL_UNIT_ASSIGNED_CONTEXT ( ( #82, #160, #39 ) ) REPRESENTATION_CONTEXT ( 'NONE', 'WORKASPACE' ) );
#10 = DIRECTION ( 'NONE',  ( -1.000000000000000000, -0.0000000000000000000, -0.0000000000000000000 ) ) ;
#11 = MANIFOLD_SOLID_BREP ( 'Ðý×ª1', #24 ) ;
#12 = VERTEX_POINT ( 'NONE', #141 ) ;
#13 = CARTESIAN_POINT ( 'NONE',  ( 740.6194349876791400, 273.0887457172100300, 0.0000000000000000000 ) ) ;
#14 = EDGE_CURVE ( 'NONE', #65, #38, #21, .T. ) ;
#15 = DIRECTION ( 'NONE',  ( -0.0000000000000000000, 0.0000000000000000000, -1.000000000000000000 ) ) ;
#16 = FACE_OUTER_BOUND ( 'NONE', #159, .T. ) ;
#17 = ORIENTED_EDGE ( 'NONE', *, *, #74, .T. ) ;
#18 = DIRECTION ( 'NONE',  ( -1.000000000000000000, -0.0000000000000000000, -0.0000000000000000000 ) ) ;
#19 = MECHANICAL_DESIGN_GEOMETRIC_PRESENTATION_REPRESENTATION (  '', ( #124 ), #26 ) ;
#20 = EDGE_LOOP ( 'NONE', ( #161, #142, #8, #146, #127 ) ) ;
#21 = LINE ( 'NONE', #83, #103 ) ;
#22 = PRODUCT_DEFINITION ( 'Î´Öª', '', #113, #173 ) ;
#23 = FACE_OUTER_BOUND ( 'NONE', #27, .T. ) ;
#24 = CLOSED_SHELL ( 'NONE', ( #46, #169, #98, #171, #43 ) ) ;
#25 = PRESENTATION_LAYER_ASSIGNMENT (  '', '', ( #149 ) ) ;
#26 =( GEOMETRIC_REPRESENTATION_CONTEXT ( 3 ) GLOBAL_UNCERTAINTY_ASSIGNED_CONTEXT ( ( #77 ) ) GLOBAL_UNIT_ASSIGNED_CONTEXT ( ( #150, #168, #183 ) ) REPRESENTATION_CONTEXT ( 'NONE', 'WORKASPACE' ) );
#27 = EDGE_LOOP ( 'NONE', ( #51, #17 ) ) ;
#28 = APPLICATION_CONTEXT ( 'automotive_design' ) ;
#29 = FILL_AREA_STYLE ('',( #107 ) ) ;
#30 = CIRCLE ( 'NONE', #42, 12.69999999999998900 ) ;
#31 = DIRECTION ( 'NONE',  ( 0.0000000000000000000, 0.0000000000000000000, 1.000000000000000000 ) ) ;
#32 = CARTESIAN_POINT ( 'NONE',  ( 853.4765778448208900, 273.0887457172101400, 0.0000000000000000000 ) ) ;
#33 = DIRECTION ( 'NONE',  ( 0.0000000000000000000, 1.000000000000000000, 0.0000000000000000000 ) ) ;
#34 = CARTESIAN_POINT ( 'NONE',  ( 740.6194349876791400, 273.0887457172100300, 0.0000000000000000000 ) ) ;
#35 = PRESENTATION_LAYER_ASSIGNMENT (  '', '', ( #124 ) ) ;
#36 =( NAMED_UNIT ( * ) SI_UNIT ( $, .STERADIAN. ) SOLID_ANGLE_UNIT ( ) );
#37 = AXIS2_PLACEMENT_3D ( 'NONE', #3, #94, #143 ) ;
#38 = VERTEX_POINT ( 'NONE', #102 ) ;
#39 =( NAMED_UNIT ( * ) SI_UNIT ( $, .STERADIAN. ) SOLID_ANGLE_UNIT ( ) );
#40 = EDGE_CURVE ( 'NONE', #12, #175, #95, .T. ) ;
#41 = APPLICATION_CONTEXT ( 'automotive_design' ) ;
#42 = AXIS2_PLACEMENT_3D ( 'NONE', #81, #126, #71 ) ;
#43 = ADVANCED_FACE ( 'NONE', ( #23 ), #73, .F. ) ;
#44 = DIRECTION ( 'NONE',  ( -0.0000000000000000000, 0.0000000000000000000, -1.000000000000000000 ) ) ;
#45 = DIRECTION ( 'NONE',  ( 0.0000000000000000000, 0.0000000000000000000, 1.000000000000000000 ) ) ;
#46 = ADVANCED_FACE ( 'NONE', ( #49 ), #145, .T. ) ;
#47 = DIRECTION ( 'NONE',  ( -0.0000000000000000000, 0.0000000000000000000, 1.000000000000000000 ) ) ;
#48 = AXIS2_PLACEMENT_3D ( 'NONE', #157, #61, #114 ) ;
#49 = FACE_OUTER_BOUND ( 'NONE', #20, .T. ) ;
#50 = CARTESIAN_POINT ( 'NONE',  ( 855.4765778448208900, 260.3887457172099300, -1.555301434917147700E-015 ) ) ;
#51 = ORIENTED_EDGE ( 'NONE', *, *, #89, .T. ) ;
#52 = ORIENTED_EDGE ( 'NONE', *, *, #117, .T. ) ;
#53 = CIRCLE ( 'NONE', #138, 115.5571428571418000 ) ;
#54 = FILL_AREA_STYLE_COLOUR ( '', #59 ) ;
#55 = LINE ( 'NONE', #172, #184 ) ;
#56 = ORIENTED_EDGE ( 'NONE', *, *, #57, .F. ) ;
#57 = EDGE_CURVE ( 'NONE', #66, #12, #158, .T. ) ;
#58 = SURFACE_SIDE_STYLE ('',( #62 ) ) ;
#59 = COLOUR_RGB ( '',1.000000000000000000, 1.000000000000000000, 1.000000000000000000 ) ;
#60 = CARTESIAN_POINT ( 'NONE',  ( 855.4765778448208900, 273.0887457172101400, 0.0000000000000000000 ) ) ;
#61 = DIRECTION ( 'NONE',  ( -1.000000000000000000, -0.0000000000000000000, -0.0000000000000000000 ) ) ;
#62 = SURFACE_STYLE_FILL_AREA ( #29 ) ;
#63 = SHAPE_DEFINITION_REPRESENTATION ( #79, #111 ) ;
#64 = ORIENTED_EDGE ( 'NONE', *, *, #78, .T. ) ;
#65 = VERTEX_POINT ( 'NONE', #174 ) ;
#66 = VERTEX_POINT ( 'NONE', #125 ) ;
#67 = FILL_AREA_STYLE ('',( #54 ) ) ;
#68 = SURFACE_STYLE_USAGE ( .BOTH. , #108 ) ;
#69 = CARTESIAN_POINT ( 'NONE',  ( 853.4765778448208900, 273.0887457172101400, -12.69999999999998900 ) ) ;
#70 = DIRECTION ( 'NONE',  ( 0.0000000000000000000, 0.0000000000000000000, 1.000000000000000000 ) ) ;
#71 = DIRECTION ( 'NONE',  ( 0.0000000000000000000, 0.0000000000000000000, 1.000000000000000000 ) ) ;
#72 = DIRECTION ( 'NONE',  ( 1.000000000000000000, 0.0000000000000000000, 0.0000000000000000000 ) ) ;
#73 = PLANE ( 'NONE',  #37 ) ;
#74 = EDGE_CURVE ( 'NONE', #118, #38, #164, .T. ) ;
#75 = SPHERICAL_SURFACE ( 'NONE', #88, 115.5571428571418000 ) ;
#76 = AXIS2_PLACEMENT_3D ( 'NONE', #112, #15, #33 ) ;
#77 = UNCERTAINTY_MEASURE_WITH_UNIT (LENGTH_MEASURE( 1.000000000000000100E-005 ), #150, 'distance_accuracy_value', 'NONE');
#78 = EDGE_CURVE ( 'NONE', #175, #5, #129, .T. ) ;
#79 = PRODUCT_DEFINITION_SHAPE ( 'NONE', 'NONE',  #22 ) ;
#80 = PRESENTATION_STYLE_ASSIGNMENT (( #68 ) ) ;
#81 = CARTESIAN_POINT ( 'NONE',  ( 855.4765778448208900, 273.0887457172101400, 0.0000000000000000000 ) ) ;
#82 =( LENGTH_UNIT ( ) NAMED_UNIT ( * ) SI_UNIT ( .MILLI., .METRE. ) );
#83 = CARTESIAN_POINT ( 'NONE',  ( 847.7383598091445300, 273.0887457172101400, 12.69999999999998900 ) ) ;
#84 = FACE_OUTER_BOUND ( 'NONE', #185, .T. ) ;
#85 = CARTESIAN_POINT ( 'NONE',  ( 855.4765778448208900, 273.0887457172101400, 0.0000000000000000000 ) ) ;
#86 = ORIENTED_EDGE ( 'NONE', *, *, #14, .T. ) ;
#87 = EDGE_CURVE ( 'NONE', #65, #12, #30, .T. ) ;
#88 = AXIS2_PLACEMENT_3D ( 'NONE', #115, #44, #140 ) ;
#89 = EDGE_CURVE ( 'NONE', #38, #118, #179, .T. ) ;
#90 = SPHERICAL_SURFACE ( 'NONE', #76, 115.5571428571418000 ) ;
#91 = CARTESIAN_POINT ( 'NONE',  ( 0.0000000000000000000, 0.0000000000000000000, 0.0000000000000000000 ) ) ;
#92 = EDGE_CURVE ( 'NONE', #5, #65, #167, .T. ) ;
#93 = PRODUCT_RELATED_PRODUCT_CATEGORY ( 'part', '', ( #100 ) ) ;
#94 = DIRECTION ( 'NONE',  ( 1.000000000000000000, 0.0000000000000000000, 0.0000000000000000000 ) ) ;
#95 = CIRCLE ( 'NONE', #136, 12.69999999999998900 ) ;
#96 = CARTESIAN_POINT ( 'NONE',  ( 855.4765778448208900, 273.0887457172101400, 0.0000000000000000000 ) ) ;
#97 = DIRECTION ( 'NONE',  ( -1.000000000000000000, -0.0000000000000000000, -0.0000000000000000000 ) ) ;
#98 = ADVANCED_FACE ( 'NONE', ( #151 ), #90, .T. ) ;
#99 = DIRECTION ( 'NONE',  ( 0.0000000000000000000, 0.0000000000000000000, 1.000000000000000000 ) ) ;
#100 = PRODUCT ( '100452', '100452', '', ( #120 ) ) ;
#101 = ORIENTED_EDGE ( 'NONE', *, *, #117, .F. ) ;
#102 = CARTESIAN_POINT ( 'NONE',  ( 853.4765778448208900, 273.0887457172101400, 12.69999999999998900 ) ) ;
#103 = VECTOR ( 'NONE', #130, 1000.000000000000000 ) ;
#104 = CYLINDRICAL_SURFACE ( 'NONE', #105, 12.69999999999998900 ) ;
#105 = AXIS2_PLACEMENT_3D ( 'NONE', #186, #155, #70 ) ;
#106 = ORIENTED_EDGE ( 'NONE', *, *, #87, .F. ) ;
#107 = FILL_AREA_STYLE_COLOUR ( '', #133 ) ;
#108 = SURFACE_SIDE_STYLE ('',( #166 ) ) ;
#109 = PRESENTATION_STYLE_ASSIGNMENT (( #144 ) ) ;
#110 = DIRECTION ( 'NONE',  ( 0.0000000000000000000, 1.224646799147353200E-016, -1.000000000000000000 ) ) ;
#111 = ADVANCED_BREP_SHAPE_REPRESENTATION ( '100452', ( #11, #181 ), #9 ) ;
#112 = CARTESIAN_POINT ( 'NONE',  ( 740.6194349876791400, 273.0887457172100300, 0.0000000000000000000 ) ) ;
#113 = PRODUCT_DEFINITION_FORMATION_WITH_SPECIFIED_SOURCE ( 'ÈÎºÎ', '', #100, .NOT_KNOWN. ) ;
#114 = DIRECTION ( 'NONE',  ( 0.0000000000000000000, 0.0000000000000000000, 1.000000000000000000 ) ) ;
#115 = CARTESIAN_POINT ( 'NONE',  ( 740.6194349876791400, 273.0887457172100300, 0.0000000000000000000 ) ) ;
#116 = ORIENTED_EDGE ( 'NONE', *, *, #165, .F. ) ;
#117 = EDGE_CURVE ( 'NONE', #66, #5, #53, .T. ) ;
#118 = VERTEX_POINT ( 'NONE', #69 ) ;
#119 = ORIENTED_EDGE ( 'NONE', *, *, #92, .F. ) ;
#120 = PRODUCT_CONTEXT ( 'NONE', #28, 'mechanical' ) ;
#121 = ORIENTED_EDGE ( 'NONE', *, *, #57, .T. ) ;
#122 = APPLICATION_PROTOCOL_DEFINITION ( 'draft international standard', 'automotive_design', 1998, #28 ) ;
#123 = MECHANICAL_DESIGN_GEOMETRIC_PRESENTATION_REPRESENTATION (  '', ( #149 ), #135 ) ;
#124 = STYLED_ITEM ( 'NONE', ( #80 ), #111 ) ;
#125 = CARTESIAN_POINT ( 'NONE',  ( 856.1765778448209400, 273.0887457172100300, 0.0000000000000000000 ) ) ;
#126 = DIRECTION ( 'NONE',  ( -1.000000000000000000, -0.0000000000000000000, -0.0000000000000000000 ) ) ;
#127 = ORIENTED_EDGE ( 'NONE', *, *, #87, .T. ) ;
#128 = DIRECTION ( 'NONE',  ( 0.0000000000000000000, 0.0000000000000000000, 1.000000000000000000 ) ) ;
#129 = CIRCLE ( 'NONE', #154, 12.69999999999998900 ) ;
#130 = DIRECTION ( 'NONE',  ( -1.000000000000000000, -0.0000000000000000000, -0.0000000000000000000 ) ) ;
#131 = CARTESIAN_POINT ( 'NONE',  ( 855.4765778448208900, 273.0887457172101400, -12.69999999999998900 ) ) ;
#132 = EDGE_LOOP ( 'NONE', ( #101, #121, #106, #119 ) ) ;
#133 = COLOUR_RGB ( '',1.000000000000000000, 1.000000000000000000, 1.000000000000000000 ) ;
#134 = ORIENTED_EDGE ( 'NONE', *, *, #92, .T. ) ;
#135 =( GEOMETRIC_REPRESENTATION_CONTEXT ( 3 ) GLOBAL_UNCERTAINTY_ASSIGNED_CONTEXT ( ( #147 ) ) GLOBAL_UNIT_ASSIGNED_CONTEXT ( ( #178, #4, #36 ) ) REPRESENTATION_CONTEXT ( 'NONE', 'WORKASPACE' ) );
#136 = AXIS2_PLACEMENT_3D ( 'NONE', #85, #18, #31 ) ;
#137 = APPLICATION_PROTOCOL_DEFINITION ( 'draft international standard', 'automotive_design', 1998, #41 ) ;
#138 = AXIS2_PLACEMENT_3D ( 'NONE', #34, #110, #139 ) ;
#139 = DIRECTION ( 'NONE',  ( 0.0000000000000000000, 1.000000000000000000, 1.224646799147353200E-016 ) ) ;
#140 = DIRECTION ( 'NONE',  ( 0.0000000000000000000, 1.000000000000000000, 0.0000000000000000000 ) ) ;
#141 = CARTESIAN_POINT ( 'NONE',  ( 855.4765778448208900, 285.7887457172102500, 0.0000000000000000000 ) ) ;
#142 = ORIENTED_EDGE ( 'NONE', *, *, #165, .T. ) ;
#143 = DIRECTION ( 'NONE',  ( 0.0000000000000000000, 0.0000000000000000000, -1.000000000000000000 ) ) ;
#144 = SURFACE_STYLE_USAGE ( .BOTH. , #58 ) ;
#145 = CYLINDRICAL_SURFACE ( 'NONE', #48, 12.69999999999998900 ) ;
#146 = ORIENTED_EDGE ( 'NONE', *, *, #14, .F. ) ;
#147 = UNCERTAINTY_MEASURE_WITH_UNIT (LENGTH_MEASURE( 1.000000000000000100E-005 ), #178, 'distance_accuracy_value', 'NONE');
#148 = AXIS2_PLACEMENT_3D ( 'NONE', #13, #47, #72 ) ;
#149 = STYLED_ITEM ( 'NONE', ( #109 ), #11 ) ;
#150 =( LENGTH_UNIT ( ) NAMED_UNIT ( * ) SI_UNIT ( .MILLI., .METRE. ) );
#151 = FACE_OUTER_BOUND ( 'NONE', #132, .T. ) ;
#152 = DIRECTION ( 'NONE',  ( 0.0000000000000000000, 0.0000000000000000000, 1.000000000000000000 ) ) ;
#153 = AXIS2_PLACEMENT_3D ( 'NONE', #176, #10, #128 ) ;
#154 = AXIS2_PLACEMENT_3D ( 'NONE', #96, #156, #45 ) ;
#155 = DIRECTION ( 'NONE',  ( -1.000000000000000000, -0.0000000000000000000, -0.0000000000000000000 ) ) ;
#156 = DIRECTION ( 'NONE',  ( -1.000000000000000000, -0.0000000000000000000, -0.0000000000000000000 ) ) ;
#157 = CARTESIAN_POINT ( 'NONE',  ( 847.7383598091445300, 273.0887457172101400, 0.0000000000000000000 ) ) ;
#158 = CIRCLE ( 'NONE', #148, 115.5571428571418000 ) ;
#159 = EDGE_LOOP ( 'NONE', ( #56, #52, #182, #6 ) ) ;
#160 =( NAMED_UNIT ( * ) PLANE_ANGLE_UNIT ( ) SI_UNIT ( $, .RADIAN. ) );
#161 = ORIENTED_EDGE ( 'NONE', *, *, #40, .T. ) ;
#162 = AXIS2_PLACEMENT_3D ( 'NONE', #60, #170, #1 ) ;
#163 = UNCERTAINTY_MEASURE_WITH_UNIT (LENGTH_MEASURE( 1.000000000000000100E-005 ), #82, 'distance_accuracy_value', 'NONE');
#164 = CIRCLE ( 'NONE', #153, 12.69999999999998900 ) ;
#165 = EDGE_CURVE ( 'NONE', #175, #118, #55, .T. ) ;
#166 = SURFACE_STYLE_FILL_AREA ( #67 ) ;
#167 = CIRCLE ( 'NONE', #162, 12.69999999999998900 ) ;
#168 =( NAMED_UNIT ( * ) PLANE_ANGLE_UNIT ( ) SI_UNIT ( $, .RADIAN. ) );
#169 = ADVANCED_FACE ( 'NONE', ( #16 ), #75, .T. ) ;
#170 = DIRECTION ( 'NONE',  ( -1.000000000000000000, -0.0000000000000000000, -0.0000000000000000000 ) ) ;
#171 = ADVANCED_FACE ( 'NONE', ( #84 ), #104, .T. ) ;
#172 = CARTESIAN_POINT ( 'NONE',  ( 847.7383598091445300, 273.0887457172101400, -12.69999999999998900 ) ) ;
#173 = PRODUCT_DEFINITION_CONTEXT ( 'detailed design', #41, 'design' ) ;
#174 = CARTESIAN_POINT ( 'NONE',  ( 855.4765778448208900, 273.0887457172101400, 12.69999999999998900 ) ) ;
#175 = VERTEX_POINT ( 'NONE', #131 ) ;
#176 = CARTESIAN_POINT ( 'NONE',  ( 853.4765778448208900, 273.0887457172101400, 0.0000000000000000000 ) ) ;
#177 = ORIENTED_EDGE ( 'NONE', *, *, #74, .F. ) ;
#178 =( LENGTH_UNIT ( ) NAMED_UNIT ( * ) SI_UNIT ( .MILLI., .METRE. ) );
#179 = CIRCLE ( 'NONE', #180, 12.69999999999998900 ) ;
#180 = AXIS2_PLACEMENT_3D ( 'NONE', #32, #2, #99 ) ;
#181 = AXIS2_PLACEMENT_3D ( 'NONE', #91, #152, #7 ) ;
#182 = ORIENTED_EDGE ( 'NONE', *, *, #78, .F. ) ;
#183 =( NAMED_UNIT ( * ) SI_UNIT ( $, .STERADIAN. ) SOLID_ANGLE_UNIT ( ) );
#184 = VECTOR ( 'NONE', #97, 1000.000000000000000 ) ;
#185 = EDGE_LOOP ( 'NONE', ( #116, #64, #134, #86, #177 ) ) ;
#186 = CARTESIAN_POINT ( 'NONE',  ( 847.7383598091445300, 273.0887457172101400, 0.0000000000000000000 ) ) ;
ENDSEC;
END-ISO-10303-21;
