ISO-10303-21;
HEADER;
FILE_DESCRIPTION (( 'STEP AP214' ),
    '1' );
FILE_NAME ('100355.STEP',
    '2019-06-03T06:18:09',
    ( '' ),
    ( '' ),
    'SwSTEP 2.0',
    'SolidWorks 2016',
    '' );
FILE_SCHEMA (( 'AUTOMOTIVE_DESIGN' ));
ENDSEC;

DATA;
#1 = DIRECTION ( 'NONE',  ( 1.000000000000000000, 0.0000000000000000000, 0.0000000000000000000 ) ) ;
#2 = CARTESIAN_POINT ( 'NONE',  ( 403.0453272772753600, 121.0525915356134600, 0.0000000000000000000 ) ) ;
#3 = ORIENTED_EDGE ( 'NONE', *, *, #178, .F. ) ;
#4 = CARTESIAN_POINT ( 'NONE',  ( 380.3841909136388600, 121.0525915356134600, 0.0000000000000000000 ) ) ;
#5 =( NAMED_UNIT ( * ) SI_UNIT ( $, .STERADIAN. ) SOLID_ANGLE_UNIT ( ) );
#6 = UNCERTAINTY_MEASURE_WITH_UNIT (LENGTH_MEASURE( 1.000000000000000100E-005 ), #184, 'distance_accuracy_value', 'NONE');
#7 = SURFACE_STYLE_FILL_AREA ( #29 ) ;
#8 = ORIENTED_EDGE ( 'NONE', *, *, #57, .F. ) ;
#9 = PRESENTATION_LAYER_ASSIGNMENT (  '', '', ( #62 ) ) ;
#10 = ORIENTED_EDGE ( 'NONE', *, *, #111, .F. ) ;
#11 = PRESENTATION_LAYER_ASSIGNMENT (  '', '', ( #40 ) ) ;
#12 = DIRECTION ( 'NONE',  ( -1.000000000000000000, -0.0000000000000000000, -0.0000000000000000000 ) ) ;
#13 = ADVANCED_FACE ( 'NONE', ( #26 ), #123, .T. ) ;
#14 = PRESENTATION_STYLE_ASSIGNMENT (( #121 ) ) ;
#15 = DIRECTION ( 'NONE',  ( 0.0000000000000000000, 0.0000000000000000000, 1.000000000000000000 ) ) ;
#16 = DIRECTION ( 'NONE',  ( 0.0000000000000000000, 1.000000000000000000, 1.224646799147353700E-016 ) ) ;
#17 = DIRECTION ( 'NONE',  ( 0.0000000000000000000, 0.0000000000000000000, 1.000000000000000000 ) ) ;
#18 = ORIENTED_EDGE ( 'NONE', *, *, #37, .T. ) ;
#19 = DIRECTION ( 'NONE',  ( 0.0000000000000000000, 0.0000000000000000000, 1.000000000000000000 ) ) ;
#20 = DIRECTION ( 'NONE',  ( -1.000000000000000000, -0.0000000000000000000, -0.0000000000000000000 ) ) ;
#21 = SURFACE_SIDE_STYLE ('',( #163 ) ) ;
#22 = PLANE ( 'NONE',  #54 ) ;
#23 = CIRCLE ( 'NONE', #99, 3.149999999999999900 ) ;
#24 = ORIENTED_EDGE ( 'NONE', *, *, #180, .T. ) ;
#25 = EDGE_CURVE ( 'NONE', #165, #56, #166, .T. ) ;
#26 = FACE_OUTER_BOUND ( 'NONE', #136, .T. ) ;
#27 = ORIENTED_EDGE ( 'NONE', *, *, #37, .F. ) ;
#28 = CARTESIAN_POINT ( 'NONE',  ( 400.4646891885264500, 121.0525915356136200, 0.0000000000000000000 ) ) ;
#29 = FILL_AREA_STYLE ('',( #115 ) ) ;
#30 = CYLINDRICAL_SURFACE ( 'NONE', #31, 3.149999999999999900 ) ;
#31 = AXIS2_PLACEMENT_3D ( 'NONE', #64, #142, #17 ) ;
#32 = DIRECTION ( 'NONE',  ( -0.0000000000000000000, 0.0000000000000000000, 1.000000000000000000 ) ) ;
#33 = SHAPE_DEFINITION_REPRESENTATION ( #78, #150 ) ;
#34 = DIRECTION ( 'NONE',  ( 0.0000000000000000000, 0.0000000000000000000, -1.000000000000000000 ) ) ;
#35 = AXIS2_PLACEMENT_3D ( 'NONE', #80, #120, #47 ) ;
#36 =( LENGTH_UNIT ( ) NAMED_UNIT ( * ) SI_UNIT ( .MILLI., .METRE. ) );
#37 = EDGE_CURVE ( 'NONE', #56, #135, #186, .T. ) ;
#38 = MANIFOLD_SOLID_BREP ( 'Ðý×ª1', #88 ) ;
#39 = EDGE_CURVE ( 'NONE', #169, #51, #182, .T. ) ;
#40 = STYLED_ITEM ( 'NONE', ( #112 ), #38 ) ;
#41 = ORIENTED_EDGE ( 'NONE', *, *, #104, .T. ) ;
#42 = SURFACE_SIDE_STYLE ('',( #7 ) ) ;
#43 = AXIS2_PLACEMENT_3D ( 'NONE', #109, #95, #161 ) ;
#44 = ADVANCED_FACE ( 'NONE', ( #85 ), #114, .T. ) ;
#45 = DIRECTION ( 'NONE',  ( 0.0000000000000000000, 0.0000000000000000000, 1.000000000000000000 ) ) ;
#46 = EDGE_LOOP ( 'NONE', ( #86, #18, #66, #127, #94 ) ) ;
#47 = DIRECTION ( 'NONE',  ( 0.0000000000000000000, 0.0000000000000000000, 1.000000000000000000 ) ) ;
#48 = ORIENTED_EDGE ( 'NONE', *, *, #57, .T. ) ;
#49 = DIRECTION ( 'NONE',  ( 0.0000000000000000000, 0.0000000000000000000, 1.000000000000000000 ) ) ;
#50 = VECTOR ( 'NONE', #12, 1000.000000000000000 ) ;
#51 = VERTEX_POINT ( 'NONE', #171 ) ;
#52 = AXIS2_PLACEMENT_3D ( 'NONE', #4, #174, #175 ) ;
#53 = ORIENTED_EDGE ( 'NONE', *, *, #73, .T. ) ;
#54 = AXIS2_PLACEMENT_3D ( 'NONE', #93, #1, #34 ) ;
#55 = ORIENTED_EDGE ( 'NONE', *, *, #87, .T. ) ;
#56 = VERTEX_POINT ( 'NONE', #128 ) ;
#57 = EDGE_CURVE ( 'NONE', #135, #103, #144, .T. ) ;
#58 = SURFACE_STYLE_USAGE ( .BOTH. , #42 ) ;
#59 = FACE_OUTER_BOUND ( 'NONE', #116, .T. ) ;
#60 = CARTESIAN_POINT ( 'NONE',  ( 401.3253272772753900, 121.0525915356136200, 3.149999999999999900 ) ) ;
#61 = ORIENTED_EDGE ( 'NONE', *, *, #25, .F. ) ;
#62 = STYLED_ITEM ( 'NONE', ( #14 ), #150 ) ;
#63 =( NAMED_UNIT ( * ) PLANE_ANGLE_UNIT ( ) SI_UNIT ( $, .RADIAN. ) );
#64 = CARTESIAN_POINT ( 'NONE',  ( 400.4646891885264500, 121.0525915356136200, 0.0000000000000000000 ) ) ;
#65 = MECHANICAL_DESIGN_GEOMETRIC_PRESENTATION_REPRESENTATION (  '', ( #62 ), #74 ) ;
#66 = ORIENTED_EDGE ( 'NONE', *, *, #180, .F. ) ;
#67 =( NAMED_UNIT ( * ) PLANE_ANGLE_UNIT ( ) SI_UNIT ( $, .RADIAN. ) );
#68 = PRODUCT_CONTEXT ( 'NONE', #134, 'mechanical' ) ;
#69 = APPLICATION_CONTEXT ( 'automotive_design' ) ;
#70 = VERTEX_POINT ( 'NONE', #167 ) ;
#71 = PRODUCT_DEFINITION_CONTEXT ( 'detailed design', #69, 'design' ) ;
#72 = PRODUCT ( '100355', '100355', '', ( #68 ) ) ;
#73 = EDGE_CURVE ( 'NONE', #70, #103, #102, .T. ) ;
#74 =( GEOMETRIC_REPRESENTATION_CONTEXT ( 3 ) GLOBAL_UNCERTAINTY_ASSIGNED_CONTEXT ( ( #100 ) ) GLOBAL_UNIT_ASSIGNED_CONTEXT ( ( #36, #176, #97 ) ) REPRESENTATION_CONTEXT ( 'NONE', 'WORKASPACE' ) );
#75 = CARTESIAN_POINT ( 'NONE',  ( 380.3841909136388600, 121.0525915356134600, 0.0000000000000000000 ) ) ;
#76 = DIRECTION ( 'NONE',  ( 0.0000000000000000000, 1.224646799147353200E-016, -1.000000000000000000 ) ) ;
#77 = DIRECTION ( 'NONE',  ( -1.000000000000000000, -0.0000000000000000000, -0.0000000000000000000 ) ) ;
#78 = PRODUCT_DEFINITION_SHAPE ( 'NONE', 'NONE',  #83 ) ;
#79 = CARTESIAN_POINT ( 'NONE',  ( 402.8253272772753900, 121.0525915356136200, 0.0000000000000000000 ) ) ;
#80 = CARTESIAN_POINT ( 'NONE',  ( 402.8253272772753900, 121.0525915356136200, 0.0000000000000000000 ) ) ;
#81 = MECHANICAL_DESIGN_GEOMETRIC_PRESENTATION_REPRESENTATION (  '', ( #40 ), #139 ) ;
#82 = FILL_AREA_STYLE_COLOUR ( '', #179 ) ;
#83 = PRODUCT_DEFINITION ( 'Î´Öª', '', #96, #71 ) ;
#84 = FACE_OUTER_BOUND ( 'NONE', #46, .T. ) ;
#85 = FACE_OUTER_BOUND ( 'NONE', #101, .T. ) ;
#86 = ORIENTED_EDGE ( 'NONE', *, *, #25, .T. ) ;
#87 = EDGE_CURVE ( 'NONE', #51, #70, #91, .T. ) ;
#88 = CLOSED_SHELL ( 'NONE', ( #106, #129, #44, #13, #168 ) ) ;
#89 = CARTESIAN_POINT ( 'NONE',  ( 400.4646891885264500, 121.0525915356136200, -3.149999999999999900 ) ) ;
#90 = CARTESIAN_POINT ( 'NONE',  ( 401.3253272772753900, 121.0525915356136200, 0.0000000000000000000 ) ) ;
#91 = CIRCLE ( 'NONE', #35, 3.149999999999999900 ) ;
#92 = CARTESIAN_POINT ( 'NONE',  ( 380.3841909136388600, 121.0525915356134600, 0.0000000000000000000 ) ) ;
#93 = CARTESIAN_POINT ( 'NONE',  ( 401.3253272772753900, 121.0525915356136200, 0.0000000000000000000 ) ) ;
#94 = ORIENTED_EDGE ( 'NONE', *, *, #178, .T. ) ;
#95 = DIRECTION ( 'NONE',  ( -1.000000000000000000, -0.0000000000000000000, -0.0000000000000000000 ) ) ;
#96 = PRODUCT_DEFINITION_FORMATION_WITH_SPECIFIED_SOURCE ( 'ÈÎºÎ', '', #72, .NOT_KNOWN. ) ;
#97 =( NAMED_UNIT ( * ) SI_UNIT ( $, .STERADIAN. ) SOLID_ANGLE_UNIT ( ) );
#98 =( LENGTH_UNIT ( ) NAMED_UNIT ( * ) SI_UNIT ( .MILLI., .METRE. ) );
#99 = AXIS2_PLACEMENT_3D ( 'NONE', #110, #20, #119 ) ;
#100 = UNCERTAINTY_MEASURE_WITH_UNIT (LENGTH_MEASURE( 1.000000000000000100E-005 ), #36, 'distance_accuracy_value', 'NONE');
#101 = EDGE_LOOP ( 'NONE', ( #157, #41, #3, #131 ) ) ;
#102 = LINE ( 'NONE', #170, #50 ) ;
#103 = VERTEX_POINT ( 'NONE', #60 ) ;
#104 = EDGE_CURVE ( 'NONE', #169, #165, #185, .T. ) ;
#105 = CARTESIAN_POINT ( 'NONE',  ( 380.3841909136388600, 121.0525915356134600, 0.0000000000000000000 ) ) ;
#106 = ADVANCED_FACE ( 'NONE', ( #84 ), #30, .T. ) ;
#107 =( GEOMETRIC_REPRESENTATION_CONTEXT ( 3 ) GLOBAL_UNCERTAINTY_ASSIGNED_CONTEXT ( ( #153 ) ) GLOBAL_UNIT_ASSIGNED_CONTEXT ( ( #98, #67, #5 ) ) REPRESENTATION_CONTEXT ( 'NONE', 'WORKASPACE' ) );
#108 = DIRECTION ( 'NONE',  ( -1.000000000000000000, -0.0000000000000000000, -0.0000000000000000000 ) ) ;
#109 = CARTESIAN_POINT ( 'NONE',  ( 402.8253272772753900, 121.0525915356136200, 0.0000000000000000000 ) ) ;
#110 = CARTESIAN_POINT ( 'NONE',  ( 401.3253272772753900, 121.0525915356136200, 0.0000000000000000000 ) ) ;
#111 = EDGE_CURVE ( 'NONE', #56, #51, #155, .T. ) ;
#112 = PRESENTATION_STYLE_ASSIGNMENT (( #58 ) ) ;
#113 = AXIS2_PLACEMENT_3D ( 'NONE', #181, #126, #152 ) ;
#114 = SPHERICAL_SURFACE ( 'NONE', #132, 22.66113636363654700 ) ;
#115 = FILL_AREA_STYLE_COLOUR ( '', #148 ) ;
#116 = EDGE_LOOP ( 'NONE', ( #24, #48 ) ) ;
#117 = AXIS2_PLACEMENT_3D ( 'NONE', #133, #49, #118 ) ;
#118 = DIRECTION ( 'NONE',  ( 1.000000000000000000, 0.0000000000000000000, 0.0000000000000000000 ) ) ;
#119 = DIRECTION ( 'NONE',  ( 0.0000000000000000000, 0.0000000000000000000, 1.000000000000000000 ) ) ;
#120 = DIRECTION ( 'NONE',  ( -1.000000000000000000, -0.0000000000000000000, -0.0000000000000000000 ) ) ;
#121 = SURFACE_STYLE_USAGE ( .BOTH. , #21 ) ;
#122 = AXIS2_PLACEMENT_3D ( 'NONE', #90, #108, #15 ) ;
#123 = CYLINDRICAL_SURFACE ( 'NONE', #146, 3.149999999999999900 ) ;
#124 = AXIS2_PLACEMENT_3D ( 'NONE', #105, #76, #16 ) ;
#125 = ORIENTED_EDGE ( 'NONE', *, *, #39, .T. ) ;
#126 = DIRECTION ( 'NONE',  ( -1.000000000000000000, -0.0000000000000000000, -0.0000000000000000000 ) ) ;
#127 = ORIENTED_EDGE ( 'NONE', *, *, #73, .F. ) ;
#128 = CARTESIAN_POINT ( 'NONE',  ( 402.8253272772753900, 121.0525915356136200, -3.149999999999999900 ) ) ;
#129 = ADVANCED_FACE ( 'NONE', ( #147 ), #177, .T. ) ;
#130 = FILL_AREA_STYLE ('',( #82 ) ) ;
#131 = ORIENTED_EDGE ( 'NONE', *, *, #87, .F. ) ;
#132 = AXIS2_PLACEMENT_3D ( 'NONE', #75, #140, #158 ) ;
#133 = CARTESIAN_POINT ( 'NONE',  ( 0.0000000000000000000, 0.0000000000000000000, 0.0000000000000000000 ) ) ;
#134 = APPLICATION_CONTEXT ( 'automotive_design' ) ;
#135 = VERTEX_POINT ( 'NONE', #172 ) ;
#136 = EDGE_LOOP ( 'NONE', ( #27, #138, #55, #53, #8 ) ) ;
#137 = CIRCLE ( 'NONE', #43, 3.149999999999999900 ) ;
#138 = ORIENTED_EDGE ( 'NONE', *, *, #111, .T. ) ;
#139 =( GEOMETRIC_REPRESENTATION_CONTEXT ( 3 ) GLOBAL_UNCERTAINTY_ASSIGNED_CONTEXT ( ( #6 ) ) GLOBAL_UNIT_ASSIGNED_CONTEXT ( ( #184, #63, #183 ) ) REPRESENTATION_CONTEXT ( 'NONE', 'WORKASPACE' ) );
#140 = DIRECTION ( 'NONE',  ( -0.0000000000000000000, 0.0000000000000000000, -1.000000000000000000 ) ) ;
#141 = DIRECTION ( 'NONE',  ( 1.000000000000000000, 0.0000000000000000000, 0.0000000000000000000 ) ) ;
#142 = DIRECTION ( 'NONE',  ( -1.000000000000000000, -0.0000000000000000000, -0.0000000000000000000 ) ) ;
#143 = APPLICATION_PROTOCOL_DEFINITION ( 'draft international standard', 'automotive_design', 1998, #134 ) ;
#144 = CIRCLE ( 'NONE', #122, 3.149999999999999900 ) ;
#145 = DIRECTION ( 'NONE',  ( -1.000000000000000000, -0.0000000000000000000, -0.0000000000000000000 ) ) ;
#146 = AXIS2_PLACEMENT_3D ( 'NONE', #28, #156, #45 ) ;
#147 = FACE_OUTER_BOUND ( 'NONE', #151, .T. ) ;
#148 = COLOUR_RGB ( '',1.000000000000000000, 1.000000000000000000, 1.000000000000000000 ) ;
#149 = AXIS2_PLACEMENT_3D ( 'NONE', #92, #32, #141 ) ;
#150 = ADVANCED_BREP_SHAPE_REPRESENTATION ( '100355', ( #38, #117 ), #107 ) ;
#151 = EDGE_LOOP ( 'NONE', ( #173, #125, #10, #61 ) ) ;
#152 = DIRECTION ( 'NONE',  ( 0.0000000000000000000, 0.0000000000000000000, 1.000000000000000000 ) ) ;
#153 = UNCERTAINTY_MEASURE_WITH_UNIT (LENGTH_MEASURE( 1.000000000000000100E-005 ), #98, 'distance_accuracy_value', 'NONE');
#154 = AXIS2_PLACEMENT_3D ( 'NONE', #79, #145, #19 ) ;
#155 = CIRCLE ( 'NONE', #154, 3.149999999999999900 ) ;
#156 = DIRECTION ( 'NONE',  ( -1.000000000000000000, -0.0000000000000000000, -0.0000000000000000000 ) ) ;
#157 = ORIENTED_EDGE ( 'NONE', *, *, #39, .F. ) ;
#158 = DIRECTION ( 'NONE',  ( 0.0000000000000000000, 1.000000000000000000, 0.0000000000000000000 ) ) ;
#159 = PRODUCT_RELATED_PRODUCT_CATEGORY ( 'part', '', ( #72 ) ) ;
#160 = CARTESIAN_POINT ( 'NONE',  ( 402.8253272772753900, 124.2025915356135800, 0.0000000000000000000 ) ) ;
#161 = DIRECTION ( 'NONE',  ( 0.0000000000000000000, 0.0000000000000000000, 1.000000000000000000 ) ) ;
#162 = APPLICATION_PROTOCOL_DEFINITION ( 'draft international standard', 'automotive_design', 1998, #69 ) ;
#163 = SURFACE_STYLE_FILL_AREA ( #130 ) ;
#164 = VECTOR ( 'NONE', #77, 1000.000000000000000 ) ;
#165 = VERTEX_POINT ( 'NONE', #160 ) ;
#166 = CIRCLE ( 'NONE', #113, 3.149999999999999900 ) ;
#167 = CARTESIAN_POINT ( 'NONE',  ( 402.8253272772753900, 121.0525915356136200, 3.149999999999999900 ) ) ;
#168 = ADVANCED_FACE ( 'NONE', ( #59 ), #22, .F. ) ;
#169 = VERTEX_POINT ( 'NONE', #2 ) ;
#170 = CARTESIAN_POINT ( 'NONE',  ( 400.4646891885264500, 121.0525915356136200, 3.149999999999999900 ) ) ;
#171 = CARTESIAN_POINT ( 'NONE',  ( 402.8253272772753900, 117.9025915356135000, -3.857637417314116800E-016 ) ) ;
#172 = CARTESIAN_POINT ( 'NONE',  ( 401.3253272772753900, 121.0525915356136200, -3.149999999999999900 ) ) ;
#173 = ORIENTED_EDGE ( 'NONE', *, *, #104, .F. ) ;
#174 = DIRECTION ( 'NONE',  ( -0.0000000000000000000, 0.0000000000000000000, -1.000000000000000000 ) ) ;
#175 = DIRECTION ( 'NONE',  ( 0.0000000000000000000, 1.000000000000000000, 0.0000000000000000000 ) ) ;
#176 =( NAMED_UNIT ( * ) PLANE_ANGLE_UNIT ( ) SI_UNIT ( $, .RADIAN. ) );
#177 = SPHERICAL_SURFACE ( 'NONE', #52, 22.66113636363654700 ) ;
#178 = EDGE_CURVE ( 'NONE', #70, #165, #137, .T. ) ;
#179 = COLOUR_RGB ( '',1.000000000000000000, 1.000000000000000000, 1.000000000000000000 ) ;
#180 = EDGE_CURVE ( 'NONE', #103, #135, #23, .T. ) ;
#181 = CARTESIAN_POINT ( 'NONE',  ( 402.8253272772753900, 121.0525915356136200, 0.0000000000000000000 ) ) ;
#182 = CIRCLE ( 'NONE', #124, 22.66113636363653700 ) ;
#183 =( NAMED_UNIT ( * ) SI_UNIT ( $, .STERADIAN. ) SOLID_ANGLE_UNIT ( ) );
#184 =( LENGTH_UNIT ( ) NAMED_UNIT ( * ) SI_UNIT ( .MILLI., .METRE. ) );
#185 = CIRCLE ( 'NONE', #149, 22.66113636363653700 ) ;
#186 = LINE ( 'NONE', #89, #164 ) ;
ENDSEC;
END-ISO-10303-21;
