ISO-10303-21;
HEADER;
FILE_DESCRIPTION (( 'STEP AP214' ),
    '1' );
FILE_NAME ('100344.STEP',
    '2019-06-03T02:13:29',
    ( '' ),
    ( '' ),
    'SwSTEP 2.0',
    'SolidWorks 2016',
    '' );
FILE_SCHEMA (( 'AUTOMOTIVE_DESIGN' ));
ENDSEC;

DATA;
#1 = CARTESIAN_POINT ( 'NONE',  ( 360.2258648033023900, 32.40144212814851700, 0.0000000000000000000 ) ) ;
#2 = UNCERTAINTY_MEASURE_WITH_UNIT (LENGTH_MEASURE( 1.000000000000000100E-005 ), #110, 'distance_accuracy_value', 'NONE');
#3 = DIRECTION ( 'NONE',  ( -1.000000000000000000, -0.0000000000000000000, -0.0000000000000000000 ) ) ;
#4 = ORIENTED_EDGE ( 'NONE', *, *, #80, .T. ) ;
#5 = CARTESIAN_POINT ( 'NONE',  ( 360.2258648033023900, 32.40144212814851700, 0.0000000000000000000 ) ) ;
#6 =( GEOMETRIC_REPRESENTATION_CONTEXT ( 3 ) GLOBAL_UNCERTAINTY_ASSIGNED_CONTEXT ( ( #146 ) ) GLOBAL_UNIT_ASSIGNED_CONTEXT ( ( #50, #168, #83 ) ) REPRESENTATION_CONTEXT ( 'NONE', 'WORKASPACE' ) );
#7 = DIRECTION ( 'NONE',  ( -1.000000000000000000, -0.0000000000000000000, -0.0000000000000000000 ) ) ;
#8 = EDGE_LOOP ( 'NONE', ( #4, #152 ) ) ;
#9 = PRODUCT_DEFINITION_FORMATION_WITH_SPECIFIED_SOURCE ( 'ÈÎºÎ', '', #112, .NOT_KNOWN. ) ;
#10 = ORIENTED_EDGE ( 'NONE', *, *, #80, .F. ) ;
#11 = AXIS2_PLACEMENT_3D ( 'NONE', #26, #76, #160 ) ;
#12 = PRODUCT_CONTEXT ( 'NONE', #115, 'mechanical' ) ;
#13 = DIRECTION ( 'NONE',  ( -1.000000000000000000, -0.0000000000000000000, -0.0000000000000000000 ) ) ;
#14 = PRESENTATION_LAYER_ASSIGNMENT (  '', '', ( #128 ) ) ;
#15 = CIRCLE ( 'NONE', #59, 2.000000000000001800 ) ;
#16 = CARTESIAN_POINT ( 'NONE',  ( 361.2925314699691100, 32.40144212814851700, -2.000000000000001800 ) ) ;
#17 = EDGE_LOOP ( 'NONE', ( #72, #170, #68, #127 ) ) ;
#18 = VERTEX_POINT ( 'NONE', #74 ) ;
#19 = CARTESIAN_POINT ( 'NONE',  ( 360.2925314699691100, 32.40144212814851700, 0.0000000000000000000 ) ) ;
#20 = ORIENTED_EDGE ( 'NONE', *, *, #145, .F. ) ;
#21 = LINE ( 'NONE', #92, #165 ) ;
#22 = CARTESIAN_POINT ( 'NONE',  ( 361.2925314699691100, 32.40144212814851700, 0.0000000000000000000 ) ) ;
#23 = DIRECTION ( 'NONE',  ( 1.000000000000000000, 0.0000000000000000000, 0.0000000000000000000 ) ) ;
#24 = VERTEX_POINT ( 'NONE', #153 ) ;
#25 = AXIS2_PLACEMENT_3D ( 'NONE', #125, #7, #156 ) ;
#26 = CARTESIAN_POINT ( 'NONE',  ( 361.2925314699691100, 32.40144212814851700, 0.0000000000000000000 ) ) ;
#27 = CARTESIAN_POINT ( 'NONE',  ( 360.2925314699691100, 32.40144212814851700, 0.0000000000000000000 ) ) ;
#28 = ORIENTED_EDGE ( 'NONE', *, *, #65, .F. ) ;
#29 = CIRCLE ( 'NONE', #96, 2.000000000000001800 ) ;
#30 = PRODUCT_DEFINITION_SHAPE ( 'NONE', 'NONE',  #90 ) ;
#31 = ORIENTED_EDGE ( 'NONE', *, *, #145, .T. ) ;
#32 = ADVANCED_BREP_SHAPE_REPRESENTATION ( '100344', ( #67, #34 ), #136 ) ;
#33 = EDGE_CURVE ( 'NONE', #38, #138, #29, .T. ) ;
#34 = AXIS2_PLACEMENT_3D ( 'NONE', #52, #150, #166 ) ;
#35 = DIRECTION ( 'NONE',  ( 1.000000000000000000, 0.0000000000000000000, 0.0000000000000000000 ) ) ;
#36 = CARTESIAN_POINT ( 'NONE',  ( 362.4925314699690900, 32.40144212814851700, 0.0000000000000000000 ) ) ;
#37 = DIRECTION ( 'NONE',  ( -0.0000000000000000000, 0.0000000000000000000, -1.000000000000000000 ) ) ;
#38 = VERTEX_POINT ( 'NONE', #172 ) ;
#39 = EDGE_CURVE ( 'NONE', #121, #38, #66, .T. ) ;
#40 = AXIS2_PLACEMENT_3D ( 'NONE', #143, #45, #140 ) ;
#41 = APPLICATION_PROTOCOL_DEFINITION ( 'draft international standard', 'automotive_design', 1998, #182 ) ;
#42 = ADVANCED_FACE ( 'NONE', ( #54 ), #147, .T. ) ;
#43 = EDGE_CURVE ( 'NONE', #121, #18, #85, .T. ) ;
#44 = CARTESIAN_POINT ( 'NONE',  ( 361.2925314699691100, 32.40144212814851700, 2.000000000000001800 ) ) ;
#45 = DIRECTION ( 'NONE',  ( 0.0000000000000000000, 1.224646799147353200E-016, -1.000000000000000000 ) ) ;
#46 =( NAMED_UNIT ( * ) SI_UNIT ( $, .STERADIAN. ) SOLID_ANGLE_UNIT ( ) );
#47 = AXIS2_PLACEMENT_3D ( 'NONE', #95, #37, #64 ) ;
#48 = VERTEX_POINT ( 'NONE', #36 ) ;
#49 = SPHERICAL_SURFACE ( 'NONE', #47, 2.266666666666692800 ) ;
#50 =( LENGTH_UNIT ( ) NAMED_UNIT ( * ) SI_UNIT ( .MILLI., .METRE. ) );
#51 = CLOSED_SHELL ( 'NONE', ( #89, #137, #42, #77, #158 ) ) ;
#52 = CARTESIAN_POINT ( 'NONE',  ( 0.0000000000000000000, 0.0000000000000000000, 0.0000000000000000000 ) ) ;
#53 = FILL_AREA_STYLE_COLOUR ( '', #139 ) ;
#54 = FACE_OUTER_BOUND ( 'NONE', #17, .T. ) ;
#55 =( LENGTH_UNIT ( ) NAMED_UNIT ( * ) SI_UNIT ( .MILLI., .METRE. ) );
#56 = DIRECTION ( 'NONE',  ( -0.0000000000000000000, 0.0000000000000000000, -1.000000000000000000 ) ) ;
#57 = EDGE_LOOP ( 'NONE', ( #108, #31, #10, #93, #81 ) ) ;
#58 = FACE_OUTER_BOUND ( 'NONE', #57, .T. ) ;
#59 = AXIS2_PLACEMENT_3D ( 'NONE', #71, #13, #70 ) ;
#60 = CARTESIAN_POINT ( 'NONE',  ( 359.8644247759224300, 32.40144212814851700, 0.0000000000000000000 ) ) ;
#61 = CARTESIAN_POINT ( 'NONE',  ( 361.2925314699691100, 30.40144212814851300, -2.449293598294709900E-016 ) ) ;
#62 = PRESENTATION_STYLE_ASSIGNMENT (( #144 ) ) ;
#63 = CYLINDRICAL_SURFACE ( 'NONE', #25, 2.000000000000001800 ) ;
#64 = DIRECTION ( 'NONE',  ( 0.0000000000000000000, 1.000000000000000000, 0.0000000000000000000 ) ) ;
#65 = EDGE_CURVE ( 'NONE', #48, #38, #183, .T. ) ;
#66 = CIRCLE ( 'NONE', #104, 2.000000000000001800 ) ;
#67 = MANIFOLD_SOLID_BREP ( 'Ðý×ª1', #51 ) ;
#68 = ORIENTED_EDGE ( 'NONE', *, *, #39, .F. ) ;
#69 = STYLED_ITEM ( 'NONE', ( #86 ), #32 ) ;
#70 = DIRECTION ( 'NONE',  ( 0.0000000000000000000, 0.0000000000000000000, 1.000000000000000000 ) ) ;
#71 = CARTESIAN_POINT ( 'NONE',  ( 361.2925314699691100, 32.40144212814851700, 0.0000000000000000000 ) ) ;
#72 = ORIENTED_EDGE ( 'NONE', *, *, #98, .F. ) ;
#73 = CARTESIAN_POINT ( 'NONE',  ( 361.2925314699691100, 32.40144212814851700, 0.0000000000000000000 ) ) ;
#74 = CARTESIAN_POINT ( 'NONE',  ( 360.2925314699691100, 32.40144212814851700, 2.000000000000001800 ) ) ;
#75 = DIRECTION ( 'NONE',  ( 0.0000000000000000000, 0.0000000000000000000, 1.000000000000000000 ) ) ;
#76 = DIRECTION ( 'NONE',  ( -1.000000000000000000, -0.0000000000000000000, -0.0000000000000000000 ) ) ;
#77 = ADVANCED_FACE ( 'NONE', ( #175 ), #132, .T. ) ;
#78 = AXIS2_PLACEMENT_3D ( 'NONE', #19, #151, #129 ) ;
#79 = FACE_OUTER_BOUND ( 'NONE', #131, .T. ) ;
#80 = EDGE_CURVE ( 'NONE', #18, #24, #94, .T. ) ;
#81 = ORIENTED_EDGE ( 'NONE', *, *, #39, .T. ) ;
#82 = SURFACE_STYLE_USAGE ( .BOTH. , #181 ) ;
#83 =( NAMED_UNIT ( * ) SI_UNIT ( $, .STERADIAN. ) SOLID_ANGLE_UNIT ( ) );
#84 = DIRECTION ( 'NONE',  ( 0.0000000000000000000, 0.0000000000000000000, -1.000000000000000000 ) ) ;
#85 = LINE ( 'NONE', #134, #100 ) ;
#86 = PRESENTATION_STYLE_ASSIGNMENT (( #82 ) ) ;
#87 = DIRECTION ( 'NONE',  ( -0.0000000000000000000, 0.0000000000000000000, 1.000000000000000000 ) ) ;
#88 = FILL_AREA_STYLE_COLOUR ( '', #141 ) ;
#89 = ADVANCED_FACE ( 'NONE', ( #58 ), #63, .T. ) ;
#90 = PRODUCT_DEFINITION ( 'Î´Öª', '', #9, #135 ) ;
#91 = FACE_OUTER_BOUND ( 'NONE', #8, .T. ) ;
#92 = CARTESIAN_POINT ( 'NONE',  ( 359.8644247759224300, 32.40144212814851700, -2.000000000000001800 ) ) ;
#93 = ORIENTED_EDGE ( 'NONE', *, *, #43, .F. ) ;
#94 = CIRCLE ( 'NONE', #149, 2.000000000000001800 ) ;
#95 = CARTESIAN_POINT ( 'NONE',  ( 360.2258648033023900, 32.40144212814851700, 0.0000000000000000000 ) ) ;
#96 = AXIS2_PLACEMENT_3D ( 'NONE', #22, #155, #117 ) ;
#97 = ORIENTED_EDGE ( 'NONE', *, *, #186, .T. ) ;
#98 = EDGE_CURVE ( 'NONE', #48, #148, #122, .T. ) ;
#99 = PRODUCT_RELATED_PRODUCT_CATEGORY ( 'part', '', ( #112 ) ) ;
#100 = VECTOR ( 'NONE', #123, 1000.000000000000000 ) ;
#101 = SURFACE_STYLE_FILL_AREA ( #185 ) ;
#102 = UNCERTAINTY_MEASURE_WITH_UNIT (LENGTH_MEASURE( 1.000000000000000100E-005 ), #55, 'distance_accuracy_value', 'NONE');
#103 = DIRECTION ( 'NONE',  ( -1.000000000000000000, -0.0000000000000000000, -0.0000000000000000000 ) ) ;
#104 = AXIS2_PLACEMENT_3D ( 'NONE', #73, #3, #75 ) ;
#105 = ORIENTED_EDGE ( 'NONE', *, *, #186, .F. ) ;
#106 = CIRCLE ( 'NONE', #78, 2.000000000000001800 ) ;
#107 = DIRECTION ( 'NONE',  ( 0.0000000000000000000, 1.000000000000000000, 0.0000000000000000000 ) ) ;
#108 = ORIENTED_EDGE ( 'NONE', *, *, #33, .T. ) ;
#109 = DIRECTION ( 'NONE',  ( -1.000000000000000000, -0.0000000000000000000, -0.0000000000000000000 ) ) ;
#110 =( LENGTH_UNIT ( ) NAMED_UNIT ( * ) SI_UNIT ( .MILLI., .METRE. ) );
#111 = ORIENTED_EDGE ( 'NONE', *, *, #98, .T. ) ;
#112 = PRODUCT ( '100344', '100344', '', ( #12 ) ) ;
#113 = AXIS2_PLACEMENT_3D ( 'NONE', #60, #103, #119 ) ;
#114 = AXIS2_PLACEMENT_3D ( 'NONE', #1, #87, #23 ) ;
#115 = APPLICATION_CONTEXT ( 'automotive_design' ) ;
#116 =( NAMED_UNIT ( * ) PLANE_ANGLE_UNIT ( ) SI_UNIT ( $, .RADIAN. ) );
#117 = DIRECTION ( 'NONE',  ( 0.0000000000000000000, 0.0000000000000000000, 1.000000000000000000 ) ) ;
#118 = ORIENTED_EDGE ( 'NONE', *, *, #154, .F. ) ;
#119 = DIRECTION ( 'NONE',  ( 0.0000000000000000000, 0.0000000000000000000, 1.000000000000000000 ) ) ;
#120 = MECHANICAL_DESIGN_GEOMETRIC_PRESENTATION_REPRESENTATION (  '', ( #69 ), #6 ) ;
#121 = VERTEX_POINT ( 'NONE', #44 ) ;
#122 = CIRCLE ( 'NONE', #40, 2.266666666666694600 ) ;
#123 = DIRECTION ( 'NONE',  ( -1.000000000000000000, -0.0000000000000000000, -0.0000000000000000000 ) ) ;
#124 = DIRECTION ( 'NONE',  ( -1.000000000000000000, -0.0000000000000000000, -0.0000000000000000000 ) ) ;
#125 = CARTESIAN_POINT ( 'NONE',  ( 359.8644247759224300, 32.40144212814851700, 0.0000000000000000000 ) ) ;
#126 = DIRECTION ( 'NONE',  ( 0.0000000000000000000, 0.0000000000000000000, 1.000000000000000000 ) ) ;
#127 = ORIENTED_EDGE ( 'NONE', *, *, #142, .F. ) ;
#128 = STYLED_ITEM ( 'NONE', ( #62 ), #67 ) ;
#129 = DIRECTION ( 'NONE',  ( 0.0000000000000000000, 0.0000000000000000000, 1.000000000000000000 ) ) ;
#130 =( NAMED_UNIT ( * ) SI_UNIT ( $, .STERADIAN. ) SOLID_ANGLE_UNIT ( ) );
#131 = EDGE_LOOP ( 'NONE', ( #28, #111, #105, #157 ) ) ;
#132 = CYLINDRICAL_SURFACE ( 'NONE', #113, 2.000000000000001800 ) ;
#133 = FILL_AREA_STYLE ('',( #88 ) ) ;
#134 = CARTESIAN_POINT ( 'NONE',  ( 359.8644247759224300, 32.40144212814851700, 2.000000000000001800 ) ) ;
#135 = PRODUCT_DEFINITION_CONTEXT ( 'detailed design', #182, 'design' ) ;
#136 =( GEOMETRIC_REPRESENTATION_CONTEXT ( 3 ) GLOBAL_UNCERTAINTY_ASSIGNED_CONTEXT ( ( #102 ) ) GLOBAL_UNIT_ASSIGNED_CONTEXT ( ( #55, #116, #130 ) ) REPRESENTATION_CONTEXT ( 'NONE', 'WORKASPACE' ) );
#137 = ADVANCED_FACE ( 'NONE', ( #79 ), #49, .T. ) ;
#138 = VERTEX_POINT ( 'NONE', #16 ) ;
#139 = COLOUR_RGB ( '',1.000000000000000000, 1.000000000000000000, 1.000000000000000000 ) ;
#140 = DIRECTION ( 'NONE',  ( 0.0000000000000000000, 1.000000000000000000, 1.224646799147352200E-016 ) ) ;
#141 = COLOUR_RGB ( '',1.000000000000000000, 1.000000000000000000, 1.000000000000000000 ) ;
#142 = EDGE_CURVE ( 'NONE', #148, #121, #176, .T. ) ;
#143 = CARTESIAN_POINT ( 'NONE',  ( 360.2258648033023900, 32.40144212814851700, 0.0000000000000000000 ) ) ;
#144 = SURFACE_STYLE_USAGE ( .BOTH. , #169 ) ;
#145 = EDGE_CURVE ( 'NONE', #138, #24, #21, .T. ) ;
#146 = UNCERTAINTY_MEASURE_WITH_UNIT (LENGTH_MEASURE( 1.000000000000000100E-005 ), #50, 'distance_accuracy_value', 'NONE');
#147 = SPHERICAL_SURFACE ( 'NONE', #180, 2.266666666666692800 ) ;
#148 = VERTEX_POINT ( 'NONE', #61 ) ;
#149 = AXIS2_PLACEMENT_3D ( 'NONE', #27, #109, #126 ) ;
#150 = DIRECTION ( 'NONE',  ( 0.0000000000000000000, 0.0000000000000000000, 1.000000000000000000 ) ) ;
#151 = DIRECTION ( 'NONE',  ( -1.000000000000000000, -0.0000000000000000000, -0.0000000000000000000 ) ) ;
#152 = ORIENTED_EDGE ( 'NONE', *, *, #154, .T. ) ;
#153 = CARTESIAN_POINT ( 'NONE',  ( 360.2925314699691100, 32.40144212814851700, -2.000000000000001800 ) ) ;
#154 = EDGE_CURVE ( 'NONE', #24, #18, #106, .T. ) ;
#155 = DIRECTION ( 'NONE',  ( -1.000000000000000000, -0.0000000000000000000, -0.0000000000000000000 ) ) ;
#156 = DIRECTION ( 'NONE',  ( 0.0000000000000000000, 0.0000000000000000000, 1.000000000000000000 ) ) ;
#157 = ORIENTED_EDGE ( 'NONE', *, *, #33, .F. ) ;
#158 = ADVANCED_FACE ( 'NONE', ( #91 ), #174, .F. ) ;
#159 = CARTESIAN_POINT ( 'NONE',  ( 360.2925314699691100, 32.40144212814851700, 0.0000000000000000000 ) ) ;
#160 = DIRECTION ( 'NONE',  ( 0.0000000000000000000, 0.0000000000000000000, 1.000000000000000000 ) ) ;
#161 = AXIS2_PLACEMENT_3D ( 'NONE', #159, #35, #84 ) ;
#162 = ORIENTED_EDGE ( 'NONE', *, *, #142, .T. ) ;
#163 = APPLICATION_PROTOCOL_DEFINITION ( 'draft international standard', 'automotive_design', 1998, #115 ) ;
#164 = EDGE_LOOP ( 'NONE', ( #20, #97, #162, #171, #118 ) ) ;
#165 = VECTOR ( 'NONE', #124, 1000.000000000000000 ) ;
#166 = DIRECTION ( 'NONE',  ( 1.000000000000000000, 0.0000000000000000000, 0.0000000000000000000 ) ) ;
#167 = MECHANICAL_DESIGN_GEOMETRIC_PRESENTATION_REPRESENTATION (  '', ( #128 ), #178 ) ;
#168 =( NAMED_UNIT ( * ) PLANE_ANGLE_UNIT ( ) SI_UNIT ( $, .RADIAN. ) );
#169 = SURFACE_SIDE_STYLE ('',( #179 ) ) ;
#170 = ORIENTED_EDGE ( 'NONE', *, *, #65, .T. ) ;
#171 = ORIENTED_EDGE ( 'NONE', *, *, #43, .T. ) ;
#172 = CARTESIAN_POINT ( 'NONE',  ( 361.2925314699691100, 34.40144212814851700, 0.0000000000000000000 ) ) ;
#173 =( NAMED_UNIT ( * ) PLANE_ANGLE_UNIT ( ) SI_UNIT ( $, .RADIAN. ) );
#174 = PLANE ( 'NONE',  #161 ) ;
#175 = FACE_OUTER_BOUND ( 'NONE', #164, .T. ) ;
#176 = CIRCLE ( 'NONE', #11, 2.000000000000001800 ) ;
#177 = PRESENTATION_LAYER_ASSIGNMENT (  '', '', ( #69 ) ) ;
#178 =( GEOMETRIC_REPRESENTATION_CONTEXT ( 3 ) GLOBAL_UNCERTAINTY_ASSIGNED_CONTEXT ( ( #2 ) ) GLOBAL_UNIT_ASSIGNED_CONTEXT ( ( #110, #173, #46 ) ) REPRESENTATION_CONTEXT ( 'NONE', 'WORKASPACE' ) );
#179 = SURFACE_STYLE_FILL_AREA ( #133 ) ;
#180 = AXIS2_PLACEMENT_3D ( 'NONE', #5, #56, #107 ) ;
#181 = SURFACE_SIDE_STYLE ('',( #101 ) ) ;
#182 = APPLICATION_CONTEXT ( 'automotive_design' ) ;
#183 = CIRCLE ( 'NONE', #114, 2.266666666666694600 ) ;
#184 = SHAPE_DEFINITION_REPRESENTATION ( #30, #32 ) ;
#185 = FILL_AREA_STYLE ('',( #53 ) ) ;
#186 = EDGE_CURVE ( 'NONE', #138, #148, #15, .T. ) ;
ENDSEC;
END-ISO-10303-21;
