ISO-10303-21;
HEADER;
FILE_DESCRIPTION (( 'STEP AP214' ),
    '1' );
FILE_NAME ('100158.STEP',
    '2019-05-16T03:04:25',
    ( '' ),
    ( '' ),
    'SwSTEP 2.0',
    'SolidWorks 2016',
    '' );
FILE_SCHEMA (( 'AUTOMOTIVE_DESIGN' ));
ENDSEC;

DATA;
#1 = CIRCLE ( 'NONE', #137, 31.50000000000000000 ) ;
#2 = ADVANCED_BREP_SHAPE_REPRESENTATION ( '100158', ( #88, #150 ), #35 ) ;
#3 = PRESENTATION_LAYER_ASSIGNMENT (  '', '', ( #48 ) ) ;
#4 = SURFACE_STYLE_FILL_AREA ( #22 ) ;
#5 = EDGE_CURVE ( 'NONE', #186, #114, #154, .T. ) ;
#6 = DIRECTION ( 'NONE',  ( -1.000000000000000000, -0.0000000000000000000, -0.0000000000000000000 ) ) ;
#7 = CIRCLE ( 'NONE', #53, 51.64031716417905200 ) ;
#8 = CARTESIAN_POINT ( 'NONE',  ( 413.4819348428407600, 59.28461343244472200, 0.0000000000000000000 ) ) ;
#9 = DIRECTION ( 'NONE',  ( 0.0000000000000000000, 0.0000000000000000000, 1.000000000000000000 ) ) ;
#10 = DIRECTION ( 'NONE',  ( 1.000000000000000000, 0.0000000000000000000, 0.0000000000000000000 ) ) ;
#11 = CARTESIAN_POINT ( 'NONE',  ( 443.4315203396890900, 59.28461343244470800, 0.0000000000000000000 ) ) ;
#12 = DIRECTION ( 'NONE',  ( 1.000000000000000000, 0.0000000000000000000, 0.0000000000000000000 ) ) ;
#13 = ORIENTED_EDGE ( 'NONE', *, *, #62, .F. ) ;
#14 = ADVANCED_FACE ( 'NONE', ( #66 ), #15, .T. ) ;
#15 = CYLINDRICAL_SURFACE ( 'NONE', #34, 31.50000000000000000 ) ;
#16 = AXIS2_PLACEMENT_3D ( 'NONE', #117, #29, #50 ) ;
#17 = AXIS2_PLACEMENT_3D ( 'NONE', #96, #123, #141 ) ;
#18 = SPHERICAL_SURFACE ( 'NONE', #67, 51.64031716417905200 ) ;
#19 = ORIENTED_EDGE ( 'NONE', *, *, #38, .T. ) ;
#20 = DIRECTION ( 'NONE',  ( 0.0000000000000000000, 0.0000000000000000000, 1.000000000000000000 ) ) ;
#21 = PRODUCT_RELATED_PRODUCT_CATEGORY ( 'part', '', ( #101 ) ) ;
#22 = FILL_AREA_STYLE ('',( #47 ) ) ;
#23 = APPLICATION_PROTOCOL_DEFINITION ( 'draft international standard', 'automotive_design', 1998, #79 ) ;
#24 = EDGE_CURVE ( 'NONE', #155, #152, #39, .T. ) ;
#25 = CARTESIAN_POINT ( 'NONE',  ( 454.4022520070198000, 59.28461343244470800, 0.0000000000000000000 ) ) ;
#26 = FILL_AREA_STYLE_COLOUR ( '', #57 ) ;
#27 = ORIENTED_EDGE ( 'NONE', *, *, #24, .F. ) ;
#28 = CARTESIAN_POINT ( 'NONE',  ( 451.4022520070198500, 59.28461343244470800, 0.0000000000000000000 ) ) ;
#29 = DIRECTION ( 'NONE',  ( 0.0000000000000000000, 0.0000000000000000000, -1.000000000000000000 ) ) ;
#30 = ADVANCED_FACE ( 'NONE', ( #116 ), #90, .F. ) ;
#31 =( NAMED_UNIT ( * ) SI_UNIT ( $, .STERADIAN. ) SOLID_ANGLE_UNIT ( ) );
#32 = ADVANCED_FACE ( 'NONE', ( #72 ), #18, .T. ) ;
#33 = ORIENTED_EDGE ( 'NONE', *, *, #122, .T. ) ;
#34 = AXIS2_PLACEMENT_3D ( 'NONE', #11, #172, #59 ) ;
#35 =( GEOMETRIC_REPRESENTATION_CONTEXT ( 3 ) GLOBAL_UNCERTAINTY_ASSIGNED_CONTEXT ( ( #149 ) ) GLOBAL_UNIT_ASSIGNED_CONTEXT ( ( #174, #184, #107 ) ) REPRESENTATION_CONTEXT ( 'NONE', 'WORKASPACE' ) );
#36 = EDGE_LOOP ( 'NONE', ( #183, #113, #55, #82, #138 ) ) ;
#37 = PRESENTATION_STYLE_ASSIGNMENT (( #110 ) ) ;
#38 = EDGE_CURVE ( 'NONE', #114, #152, #75, .T. ) ;
#39 = CIRCLE ( 'NONE', #16, 51.64031716417905200 ) ;
#40 = EDGE_LOOP ( 'NONE', ( #135, #105 ) ) ;
#41 = UNCERTAINTY_MEASURE_WITH_UNIT (LENGTH_MEASURE( 1.000000000000000100E-005 ), #52, 'distance_accuracy_value', 'NONE');
#42 = AXIS2_PLACEMENT_3D ( 'NONE', #25, #6, #20 ) ;
#43 = CARTESIAN_POINT ( 'NONE',  ( 451.4022520070198500, 59.28461343244470800, 31.50000000000000000 ) ) ;
#44 = ORIENTED_EDGE ( 'NONE', *, *, #122, .F. ) ;
#45 =( NAMED_UNIT ( * ) PLANE_ANGLE_UNIT ( ) SI_UNIT ( $, .RADIAN. ) );
#46 =( GEOMETRIC_REPRESENTATION_CONTEXT ( 3 ) GLOBAL_UNCERTAINTY_ASSIGNED_CONTEXT ( ( #41 ) ) GLOBAL_UNIT_ASSIGNED_CONTEXT ( ( #52, #161, #31 ) ) REPRESENTATION_CONTEXT ( 'NONE', 'WORKASPACE' ) );
#47 = FILL_AREA_STYLE_COLOUR ( '', #119 ) ;
#48 = STYLED_ITEM ( 'NONE', ( #95 ), #2 ) ;
#49 = CARTESIAN_POINT ( 'NONE',  ( 0.0000000000000000000, 0.0000000000000000000, 0.0000000000000000000 ) ) ;
#50 = DIRECTION ( 'NONE',  ( -1.000000000000000000, 0.0000000000000000000, 0.0000000000000000000 ) ) ;
#51 = DIRECTION ( 'NONE',  ( 0.0000000000000000000, 0.0000000000000000000, 1.000000000000000000 ) ) ;
#52 =( LENGTH_UNIT ( ) NAMED_UNIT ( * ) SI_UNIT ( .MILLI., .METRE. ) );
#53 = AXIS2_PLACEMENT_3D ( 'NONE', #142, #125, #153 ) ;
#54 = EDGE_CURVE ( 'NONE', #114, #97, #179, .T. ) ;
#55 = ORIENTED_EDGE ( 'NONE', *, *, #102, .F. ) ;
#56 = AXIS2_PLACEMENT_3D ( 'NONE', #60, #12, #181 ) ;
#57 = COLOUR_RGB ( '',1.000000000000000000, 1.000000000000000000, 1.000000000000000000 ) ;
#58 = ORIENTED_EDGE ( 'NONE', *, *, #178, .T. ) ;
#59 = DIRECTION ( 'NONE',  ( 0.0000000000000000000, 0.0000000000000000000, 1.000000000000000000 ) ) ;
#60 = CARTESIAN_POINT ( 'NONE',  ( 451.4022520070198500, 59.28461343244470800, 0.0000000000000000000 ) ) ;
#61 =( LENGTH_UNIT ( ) NAMED_UNIT ( * ) SI_UNIT ( .MILLI., .METRE. ) );
#62 = EDGE_CURVE ( 'NONE', #164, #186, #127, .T. ) ;
#63 = CARTESIAN_POINT ( 'NONE',  ( 454.4022520070198000, 59.28461343244470800, 0.0000000000000000000 ) ) ;
#64 = APPLICATION_PROTOCOL_DEFINITION ( 'draft international standard', 'automotive_design', 1998, #140 ) ;
#65 = DIRECTION ( 'NONE',  ( 0.0000000000000000000, 0.0000000000000000000, 1.000000000000000000 ) ) ;
#66 = FACE_OUTER_BOUND ( 'NONE', #100, .T. ) ;
#67 = AXIS2_PLACEMENT_3D ( 'NONE', #8, #9, #169 ) ;
#68 = PRODUCT_DEFINITION_CONTEXT ( 'detailed design', #79, 'design' ) ;
#69 = CARTESIAN_POINT ( 'NONE',  ( 454.4022520070198000, 27.78461343244471800, 0.0000000000000000000 ) ) ;
#70 = CARTESIAN_POINT ( 'NONE',  ( 454.4022520070198000, 59.28461343244470800, 0.0000000000000000000 ) ) ;
#71 = VECTOR ( 'NONE', #83, 1000.000000000000000 ) ;
#72 = FACE_OUTER_BOUND ( 'NONE', #173, .T. ) ;
#73 = AXIS2_PLACEMENT_3D ( 'NONE', #158, #84, #143 ) ;
#74 = SURFACE_STYLE_FILL_AREA ( #131 ) ;
#75 = CIRCLE ( 'NONE', #42, 31.50000000000000000 ) ;
#76 = ORIENTED_EDGE ( 'NONE', *, *, #24, .T. ) ;
#77 = STYLED_ITEM ( 'NONE', ( #37 ), #88 ) ;
#78 = CARTESIAN_POINT ( 'NONE',  ( 454.4022520070198000, 59.28461343244470800, 0.0000000000000000000 ) ) ;
#79 = APPLICATION_CONTEXT ( 'automotive_design' ) ;
#80 = SPHERICAL_SURFACE ( 'NONE', #73, 51.64031716417905200 ) ;
#81 = DIRECTION ( 'NONE',  ( -1.000000000000000000, -0.0000000000000000000, -0.0000000000000000000 ) ) ;
#82 = ORIENTED_EDGE ( 'NONE', *, *, #178, .F. ) ;
#83 = DIRECTION ( 'NONE',  ( -1.000000000000000000, -0.0000000000000000000, -0.0000000000000000000 ) ) ;
#84 = DIRECTION ( 'NONE',  ( 0.0000000000000000000, 0.0000000000000000000, 1.000000000000000000 ) ) ;
#85 = VERTEX_POINT ( 'NONE', #43 ) ;
#86 = CARTESIAN_POINT ( 'NONE',  ( 465.1222520070197700, 59.28461343244472200, 0.0000000000000000000 ) ) ;
#87 = AXIS2_PLACEMENT_3D ( 'NONE', #157, #93, #51 ) ;
#88 = MANIFOLD_SOLID_BREP ( 'Ðý×ª1', #126 ) ;
#89 = PRESENTATION_LAYER_ASSIGNMENT (  '', '', ( #77 ) ) ;
#90 = PLANE ( 'NONE',  #56 ) ;
#91 = AXIS2_PLACEMENT_3D ( 'NONE', #78, #168, #133 ) ;
#92 = CARTESIAN_POINT ( 'NONE',  ( 451.4022520070198500, 59.28461343244471500, -31.50000000000000000 ) ) ;
#93 = DIRECTION ( 'NONE',  ( -1.000000000000000000, -0.0000000000000000000, -0.0000000000000000000 ) ) ;
#94 = DIRECTION ( 'NONE',  ( 0.0000000000000000000, 0.0000000000000000000, 1.000000000000000000 ) ) ;
#95 = PRESENTATION_STYLE_ASSIGNMENT (( #121 ) ) ;
#96 = CARTESIAN_POINT ( 'NONE',  ( 451.4022520070198500, 59.28461343244470800, 0.0000000000000000000 ) ) ;
#97 = VERTEX_POINT ( 'NONE', #92 ) ;
#98 = ADVANCED_FACE ( 'NONE', ( #103 ), #80, .T. ) ;
#99 = CYLINDRICAL_SURFACE ( 'NONE', #87, 31.50000000000000000 ) ;
#100 = EDGE_LOOP ( 'NONE', ( #104, #19, #139, #58, #147 ) ) ;
#101 = PRODUCT ( '100158', '100158', '', ( #156 ) ) ;
#102 = EDGE_CURVE ( 'NONE', #85, #97, #166, .T. ) ;
#103 = FACE_OUTER_BOUND ( 'NONE', #136, .T. ) ;
#104 = ORIENTED_EDGE ( 'NONE', *, *, #54, .F. ) ;
#105 = ORIENTED_EDGE ( 'NONE', *, *, #151, .T. ) ;
#106 = AXIS2_PLACEMENT_3D ( 'NONE', #63, #81, #65 ) ;
#107 =( NAMED_UNIT ( * ) SI_UNIT ( $, .STERADIAN. ) SOLID_ANGLE_UNIT ( ) );
#108 = DIRECTION ( 'NONE',  ( 0.0000000000000000000, 0.0000000000000000000, 1.000000000000000000 ) ) ;
#109 = VECTOR ( 'NONE', #130, 1000.000000000000000 ) ;
#110 = SURFACE_STYLE_USAGE ( .BOTH. , #176 ) ;
#111 = DIRECTION ( 'NONE',  ( 0.0000000000000000000, 0.0000000000000000000, 1.000000000000000000 ) ) ;
#112 = AXIS2_PLACEMENT_3D ( 'NONE', #70, #159, #111 ) ;
#113 = ORIENTED_EDGE ( 'NONE', *, *, #54, .T. ) ;
#114 = VERTEX_POINT ( 'NONE', #175 ) ;
#115 = MECHANICAL_DESIGN_GEOMETRIC_PRESENTATION_REPRESENTATION (  '', ( #77 ), #46 ) ;
#116 = FACE_OUTER_BOUND ( 'NONE', #40, .T. ) ;
#117 = CARTESIAN_POINT ( 'NONE',  ( 413.4819348428407600, 59.28461343244472200, 0.0000000000000000000 ) ) ;
#118 =( GEOMETRIC_REPRESENTATION_CONTEXT ( 3 ) GLOBAL_UNCERTAINTY_ASSIGNED_CONTEXT ( ( #129 ) ) GLOBAL_UNIT_ASSIGNED_CONTEXT ( ( #61, #45, #132 ) ) REPRESENTATION_CONTEXT ( 'NONE', 'WORKASPACE' ) );
#119 = COLOUR_RGB ( '',1.000000000000000000, 1.000000000000000000, 1.000000000000000000 ) ;
#120 = ORIENTED_EDGE ( 'NONE', *, *, #182, .F. ) ;
#121 = SURFACE_STYLE_USAGE ( .BOTH. , #171 ) ;
#122 = EDGE_CURVE ( 'NONE', #155, #186, #7, .T. ) ;
#123 = DIRECTION ( 'NONE',  ( -1.000000000000000000, -0.0000000000000000000, -0.0000000000000000000 ) ) ;
#124 = SHAPE_DEFINITION_REPRESENTATION ( #185, #2 ) ;
#125 = DIRECTION ( 'NONE',  ( 0.0000000000000000000, -1.224646799147353200E-016, 1.000000000000000000 ) ) ;
#126 = CLOSED_SHELL ( 'NONE', ( #148, #98, #32, #14, #30 ) ) ;
#127 = CIRCLE ( 'NONE', #106, 31.50000000000000000 ) ;
#128 = LINE ( 'NONE', #144, #71 ) ;
#129 = UNCERTAINTY_MEASURE_WITH_UNIT (LENGTH_MEASURE( 1.000000000000000100E-005 ), #61, 'distance_accuracy_value', 'NONE');
#130 = DIRECTION ( 'NONE',  ( -1.000000000000000000, -0.0000000000000000000, -0.0000000000000000000 ) ) ;
#131 = FILL_AREA_STYLE ('',( #26 ) ) ;
#132 =( NAMED_UNIT ( * ) SI_UNIT ( $, .STERADIAN. ) SOLID_ANGLE_UNIT ( ) );
#133 = DIRECTION ( 'NONE',  ( 0.0000000000000000000, 0.0000000000000000000, 1.000000000000000000 ) ) ;
#134 = CARTESIAN_POINT ( 'NONE',  ( 454.4022520070198000, 59.28461343244470800, 31.50000000000000000 ) ) ;
#135 = ORIENTED_EDGE ( 'NONE', *, *, #102, .T. ) ;
#136 = EDGE_LOOP ( 'NONE', ( #27, #33, #13, #120 ) ) ;
#137 = AXIS2_PLACEMENT_3D ( 'NONE', #28, #145, #94 ) ;
#138 = ORIENTED_EDGE ( 'NONE', *, *, #62, .T. ) ;
#139 = ORIENTED_EDGE ( 'NONE', *, *, #182, .T. ) ;
#140 = APPLICATION_CONTEXT ( 'automotive_design' ) ;
#141 = DIRECTION ( 'NONE',  ( 0.0000000000000000000, 0.0000000000000000000, 1.000000000000000000 ) ) ;
#142 = CARTESIAN_POINT ( 'NONE',  ( 413.4819348428407600, 59.28461343244472200, 0.0000000000000000000 ) ) ;
#143 = DIRECTION ( 'NONE',  ( 0.0000000000000000000, -1.000000000000000000, 0.0000000000000000000 ) ) ;
#144 = CARTESIAN_POINT ( 'NONE',  ( 443.4315203396890900, 59.28461343244470800, 31.50000000000000000 ) ) ;
#145 = DIRECTION ( 'NONE',  ( -1.000000000000000000, -0.0000000000000000000, -0.0000000000000000000 ) ) ;
#146 = CARTESIAN_POINT ( 'NONE',  ( 454.4022520070198000, 90.78461343244470100, 3.857637417314160300E-015 ) ) ;
#147 = ORIENTED_EDGE ( 'NONE', *, *, #151, .F. ) ;
#148 = ADVANCED_FACE ( 'NONE', ( #163 ), #99, .T. ) ;
#149 = UNCERTAINTY_MEASURE_WITH_UNIT (LENGTH_MEASURE( 1.000000000000000100E-005 ), #174, 'distance_accuracy_value', 'NONE');
#150 = AXIS2_PLACEMENT_3D ( 'NONE', #49, #108, #10 ) ;
#151 = EDGE_CURVE ( 'NONE', #97, #85, #1, .T. ) ;
#152 = VERTEX_POINT ( 'NONE', #69 ) ;
#153 = DIRECTION ( 'NONE',  ( 0.0000000000000000000, -1.000000000000000000, -1.224646799147353200E-016 ) ) ;
#154 = CIRCLE ( 'NONE', #91, 31.50000000000000000 ) ;
#155 = VERTEX_POINT ( 'NONE', #86 ) ;
#156 = PRODUCT_CONTEXT ( 'NONE', #140, 'mechanical' ) ;
#157 = CARTESIAN_POINT ( 'NONE',  ( 443.4315203396890900, 59.28461343244470800, 0.0000000000000000000 ) ) ;
#158 = CARTESIAN_POINT ( 'NONE',  ( 413.4819348428407600, 59.28461343244472200, 0.0000000000000000000 ) ) ;
#159 = DIRECTION ( 'NONE',  ( -1.000000000000000000, -0.0000000000000000000, -0.0000000000000000000 ) ) ;
#160 = ORIENTED_EDGE ( 'NONE', *, *, #38, .F. ) ;
#161 =( NAMED_UNIT ( * ) PLANE_ANGLE_UNIT ( ) SI_UNIT ( $, .RADIAN. ) );
#162 = CIRCLE ( 'NONE', #112, 31.50000000000000000 ) ;
#163 = FACE_OUTER_BOUND ( 'NONE', #36, .T. ) ;
#164 = VERTEX_POINT ( 'NONE', #134 ) ;
#165 = PRODUCT_DEFINITION ( 'Î´Öª', '', #180, #68 ) ;
#166 = CIRCLE ( 'NONE', #17, 31.50000000000000000 ) ;
#167 = CARTESIAN_POINT ( 'NONE',  ( 443.4315203396890900, 59.28461343244471500, -31.50000000000000000 ) ) ;
#168 = DIRECTION ( 'NONE',  ( -1.000000000000000000, -0.0000000000000000000, -0.0000000000000000000 ) ) ;
#169 = DIRECTION ( 'NONE',  ( 0.0000000000000000000, -1.000000000000000000, 0.0000000000000000000 ) ) ;
#170 = MECHANICAL_DESIGN_GEOMETRIC_PRESENTATION_REPRESENTATION (  '', ( #48 ), #118 ) ;
#171 = SURFACE_SIDE_STYLE ('',( #74 ) ) ;
#172 = DIRECTION ( 'NONE',  ( -1.000000000000000000, -0.0000000000000000000, -0.0000000000000000000 ) ) ;
#173 = EDGE_LOOP ( 'NONE', ( #44, #76, #160, #177 ) ) ;
#174 =( LENGTH_UNIT ( ) NAMED_UNIT ( * ) SI_UNIT ( .MILLI., .METRE. ) );
#175 = CARTESIAN_POINT ( 'NONE',  ( 454.4022520070198000, 59.28461343244471500, -31.50000000000000000 ) ) ;
#176 = SURFACE_SIDE_STYLE ('',( #4 ) ) ;
#177 = ORIENTED_EDGE ( 'NONE', *, *, #5, .F. ) ;
#178 = EDGE_CURVE ( 'NONE', #164, #85, #128, .T. ) ;
#179 = LINE ( 'NONE', #167, #109 ) ;
#180 = PRODUCT_DEFINITION_FORMATION_WITH_SPECIFIED_SOURCE ( 'ÈÎºÎ', '', #101, .NOT_KNOWN. ) ;
#181 = DIRECTION ( 'NONE',  ( 0.0000000000000000000, 0.0000000000000000000, -1.000000000000000000 ) ) ;
#182 = EDGE_CURVE ( 'NONE', #152, #164, #162, .T. ) ;
#183 = ORIENTED_EDGE ( 'NONE', *, *, #5, .T. ) ;
#184 =( NAMED_UNIT ( * ) PLANE_ANGLE_UNIT ( ) SI_UNIT ( $, .RADIAN. ) );
#185 = PRODUCT_DEFINITION_SHAPE ( 'NONE', 'NONE',  #165 ) ;
#186 = VERTEX_POINT ( 'NONE', #146 ) ;
ENDSEC;
END-ISO-10303-21;
