ISO-10303-21;
HEADER;
FILE_DESCRIPTION (( 'STEP AP214' ),
    '1' );
FILE_NAME ('100145.STEP',
    '2019-05-15T07:29:17',
    ( '' ),
    ( '' ),
    'SwSTEP 2.0',
    'SolidWorks 2016',
    '' );
FILE_SCHEMA (( 'AUTOMOTIVE_DESIGN' ));
ENDSEC;

DATA;
#1 = PLANE ( 'NONE',  #139 ) ;
#2 = ADVANCED_FACE ( 'NONE', ( #27 ), #172, .T. ) ;
#3 = CARTESIAN_POINT ( 'NONE',  ( 629.1232000199117900, 80.18946772799483800, 0.0000000000000000000 ) ) ;
#4 = CARTESIAN_POINT ( 'NONE',  ( 626.6232000199117900, 80.18946772799483800, 0.0000000000000000000 ) ) ;
#5 = EDGE_CURVE ( 'NONE', #15, #185, #50, .T. ) ;
#6 = DIRECTION ( 'NONE',  ( -1.000000000000000000, -0.0000000000000000000, -0.0000000000000000000 ) ) ;
#7 =( LENGTH_UNIT ( ) NAMED_UNIT ( * ) SI_UNIT ( .MILLI., .METRE. ) );
#8 = ORIENTED_EDGE ( 'NONE', *, *, #22, .T. ) ;
#9 = AXIS2_PLACEMENT_3D ( 'NONE', #127, #43, #170 ) ;
#10 = EDGE_CURVE ( 'NONE', #15, #12, #181, .T. ) ;
#11 = AXIS2_PLACEMENT_3D ( 'NONE', #84, #148, #175 ) ;
#12 = VERTEX_POINT ( 'NONE', #49 ) ;
#13 = DIRECTION ( 'NONE',  ( 0.0000000000000000000, 0.0000000000000000000, -1.000000000000000000 ) ) ;
#14 =( GEOMETRIC_REPRESENTATION_CONTEXT ( 3 ) GLOBAL_UNCERTAINTY_ASSIGNED_CONTEXT ( ( #48 ) ) GLOBAL_UNIT_ASSIGNED_CONTEXT ( ( #7, #116, #130 ) ) REPRESENTATION_CONTEXT ( 'NONE', 'WORKASPACE' ) );
#15 = VERTEX_POINT ( 'NONE', #96 ) ;
#16 = DIRECTION ( 'NONE',  ( 0.0000000000000000000, 0.0000000000000000000, 1.000000000000000000 ) ) ;
#17 = DIRECTION ( 'NONE',  ( 0.0000000000000000000, 0.0000000000000000000, 1.000000000000000000 ) ) ;
#18 = CARTESIAN_POINT ( 'NONE',  ( 626.6232000199117900, 80.18946772799483800, -19.99999999999998900 ) ) ;
#19 =( LENGTH_UNIT ( ) NAMED_UNIT ( * ) SI_UNIT ( .MILLI., .METRE. ) );
#20 = FACE_OUTER_BOUND ( 'NONE', #24, .T. ) ;
#21 = ORIENTED_EDGE ( 'NONE', *, *, #5, .F. ) ;
#22 = EDGE_CURVE ( 'NONE', #156, #60, #176, .T. ) ;
#23 = APPLICATION_CONTEXT ( 'automotive_design' ) ;
#24 = EDGE_LOOP ( 'NONE', ( #59, #94, #88, #123, #115 ) ) ;
#25 = UNCERTAINTY_MEASURE_WITH_UNIT (LENGTH_MEASURE( 1.000000000000000100E-005 ), #19, 'distance_accuracy_value', 'NONE');
#26 = COLOUR_RGB ( '',1.000000000000000000, 1.000000000000000000, 1.000000000000000000 ) ;
#27 = FACE_OUTER_BOUND ( 'NONE', #164, .T. ) ;
#28 = CARTESIAN_POINT ( 'NONE',  ( 567.8201182589053800, 80.18946772799486700, 0.0000000000000000000 ) ) ;
#29 = DIRECTION ( 'NONE',  ( -1.000000000000000000, -0.0000000000000000000, -0.0000000000000000000 ) ) ;
#30 = SURFACE_STYLE_USAGE ( .BOTH. , #155 ) ;
#31 = SPHERICAL_SURFACE ( 'NONE', #111, 64.48308176100647400 ) ;
#32 = DIRECTION ( 'NONE',  ( -1.000000000000000000, -0.0000000000000000000, -0.0000000000000000000 ) ) ;
#33 = PRESENTATION_STYLE_ASSIGNMENT (( #161 ) ) ;
#34 = ORIENTED_EDGE ( 'NONE', *, *, #119, .T. ) ;
#35 = PRESENTATION_STYLE_ASSIGNMENT (( #30 ) ) ;
#36 = DIRECTION ( 'NONE',  ( 0.0000000000000000000, -1.224646799147353200E-016, 1.000000000000000000 ) ) ;
#37 = MANIFOLD_SOLID_BREP ( 'Ðý×ª1', #46 ) ;
#38 = CIRCLE ( 'NONE', #150, 19.99999999999998900 ) ;
#39 = EDGE_LOOP ( 'NONE', ( #74, #105, #79, #42 ) ) ;
#40 = PRODUCT ( '100145', '100145', '', ( #163 ) ) ;
#41 = CARTESIAN_POINT ( 'NONE',  ( 621.9286568393347400, 80.18946772799483800, -19.99999999999998900 ) ) ;
#42 = ORIENTED_EDGE ( 'NONE', *, *, #137, .F. ) ;
#43 = DIRECTION ( 'NONE',  ( -1.000000000000000000, -0.0000000000000000000, -0.0000000000000000000 ) ) ;
#44 = CIRCLE ( 'NONE', #9, 19.99999999999998900 ) ;
#45 = AXIS2_PLACEMENT_3D ( 'NONE', #159, #29, #17 ) ;
#46 = CLOSED_SHELL ( 'NONE', ( #141, #2, #86, #53, #56 ) ) ;
#47 = EDGE_CURVE ( 'NONE', #77, #185, #95, .T. ) ;
#48 = UNCERTAINTY_MEASURE_WITH_UNIT (LENGTH_MEASURE( 1.000000000000000100E-005 ), #7, 'distance_accuracy_value', 'NONE');
#49 = CARTESIAN_POINT ( 'NONE',  ( 629.1232000199117900, 100.1894677279948100, 2.449293598294698600E-015 ) ) ;
#50 = CIRCLE ( 'NONE', #58, 64.48308176100647400 ) ;
#51 = CARTESIAN_POINT ( 'NONE',  ( 567.8201182589053800, 80.18946772799486700, 0.0000000000000000000 ) ) ;
#52 = DIRECTION ( 'NONE',  ( 0.0000000000000000000, 0.0000000000000000000, 1.000000000000000000 ) ) ;
#53 = ADVANCED_FACE ( 'NONE', ( #20 ), #178, .T. ) ;
#54 = ORIENTED_EDGE ( 'NONE', *, *, #119, .F. ) ;
#55 = DIRECTION ( 'NONE',  ( -1.000000000000000000, -0.0000000000000000000, -0.0000000000000000000 ) ) ;
#56 = ADVANCED_FACE ( 'NONE', ( #70 ), #1, .F. ) ;
#57 = CARTESIAN_POINT ( 'NONE',  ( 621.9286568393347400, 80.18946772799483800, 19.99999999999998900 ) ) ;
#58 = AXIS2_PLACEMENT_3D ( 'NONE', #51, #13, #108 ) ;
#59 = ORIENTED_EDGE ( 'NONE', *, *, #132, .F. ) ;
#60 = VERTEX_POINT ( 'NONE', #81 ) ;
#61 = APPLICATION_CONTEXT ( 'automotive_design' ) ;
#62 = AXIS2_PLACEMENT_3D ( 'NONE', #184, #152, #52 ) ;
#63 = STYLED_ITEM ( 'NONE', ( #35 ), #37 ) ;
#64 = DIRECTION ( 'NONE',  ( 0.0000000000000000000, 0.0000000000000000000, 1.000000000000000000 ) ) ;
#65 = SURFACE_STYLE_FILL_AREA ( #91 ) ;
#66 =( NAMED_UNIT ( * ) PLANE_ANGLE_UNIT ( ) SI_UNIT ( $, .RADIAN. ) );
#67 = DIRECTION ( 'NONE',  ( -1.000000000000000000, -0.0000000000000000000, -0.0000000000000000000 ) ) ;
#68 =( NAMED_UNIT ( * ) SI_UNIT ( $, .STERADIAN. ) SOLID_ANGLE_UNIT ( ) );
#69 = DIRECTION ( 'NONE',  ( 0.0000000000000000000, 0.0000000000000000000, 1.000000000000000000 ) ) ;
#70 = FACE_OUTER_BOUND ( 'NONE', #90, .T. ) ;
#71 = AXIS2_PLACEMENT_3D ( 'NONE', #3, #128, #16 ) ;
#72 = AXIS2_PLACEMENT_3D ( 'NONE', #97, #80, #186 ) ;
#73 = CIRCLE ( 'NONE', #71, 19.99999999999998900 ) ;
#74 = ORIENTED_EDGE ( 'NONE', *, *, #10, .F. ) ;
#75 = PRODUCT_DEFINITION ( 'Î´Öª', '', #89, #140 ) ;
#76 = AXIS2_PLACEMENT_3D ( 'NONE', #4, #32, #69 ) ;
#77 = VERTEX_POINT ( 'NONE', #143 ) ;
#78 = FILL_AREA_STYLE ('',( #167 ) ) ;
#79 = ORIENTED_EDGE ( 'NONE', *, *, #47, .F. ) ;
#80 = DIRECTION ( 'NONE',  ( -1.000000000000000000, -0.0000000000000000000, -0.0000000000000000000 ) ) ;
#81 = CARTESIAN_POINT ( 'NONE',  ( 626.6232000199117900, 80.18946772799483800, 19.99999999999998900 ) ) ;
#82 = DIRECTION ( 'NONE',  ( 0.0000000000000000000, 0.0000000000000000000, 1.000000000000000000 ) ) ;
#83 = DIRECTION ( 'NONE',  ( 0.0000000000000000000, 0.0000000000000000000, 1.000000000000000000 ) ) ;
#84 = CARTESIAN_POINT ( 'NONE',  ( 0.0000000000000000000, 0.0000000000000000000, 0.0000000000000000000 ) ) ;
#85 = DIRECTION ( 'NONE',  ( -1.000000000000000000, -0.0000000000000000000, -0.0000000000000000000 ) ) ;
#86 = ADVANCED_FACE ( 'NONE', ( #120 ), #31, .T. ) ;
#87 = EDGE_CURVE ( 'NONE', #134, #60, #136, .T. ) ;
#88 = ORIENTED_EDGE ( 'NONE', *, *, #106, .T. ) ;
#89 = PRODUCT_DEFINITION_FORMATION_WITH_SPECIFIED_SOURCE ( 'ÈÎºÎ', '', #40, .NOT_KNOWN. ) ;
#90 = EDGE_LOOP ( 'NONE', ( #133, #8 ) ) ;
#91 = FILL_AREA_STYLE ('',( #173 ) ) ;
#92 = ORIENTED_EDGE ( 'NONE', *, *, #154, .F. ) ;
#93 = MECHANICAL_DESIGN_GEOMETRIC_PRESENTATION_REPRESENTATION (  '', ( #63 ), #174 ) ;
#94 = ORIENTED_EDGE ( 'NONE', *, *, #47, .T. ) ;
#95 = CIRCLE ( 'NONE', #45, 19.99999999999998900 ) ;
#96 = CARTESIAN_POINT ( 'NONE',  ( 632.3032000199118600, 80.18946772799486700, 0.0000000000000000000 ) ) ;
#97 = CARTESIAN_POINT ( 'NONE',  ( 626.6232000199117900, 80.18946772799483800, 0.0000000000000000000 ) ) ;
#98 = PRESENTATION_LAYER_ASSIGNMENT (  '', '', ( #63 ) ) ;
#99 = ORIENTED_EDGE ( 'NONE', *, *, #132, .T. ) ;
#100 = DIRECTION ( 'NONE',  ( 1.000000000000000000, 0.0000000000000000000, 0.0000000000000000000 ) ) ;
#101 =( GEOMETRIC_REPRESENTATION_CONTEXT ( 3 ) GLOBAL_UNCERTAINTY_ASSIGNED_CONTEXT ( ( #25 ) ) GLOBAL_UNIT_ASSIGNED_CONTEXT ( ( #19, #114, #147 ) ) REPRESENTATION_CONTEXT ( 'NONE', 'WORKASPACE' ) );
#102 = CARTESIAN_POINT ( 'NONE',  ( 629.1232000199117900, 60.18946772799490900, 0.0000000000000000000 ) ) ;
#103 = VECTOR ( 'NONE', #55, 1000.000000000000000 ) ;
#104 = VECTOR ( 'NONE', #6, 1000.000000000000000 ) ;
#105 = ORIENTED_EDGE ( 'NONE', *, *, #5, .T. ) ;
#106 = EDGE_CURVE ( 'NONE', #185, #134, #73, .T. ) ;
#107 = COLOUR_RGB ( '',1.000000000000000000, 1.000000000000000000, 1.000000000000000000 ) ;
#108 = DIRECTION ( 'NONE',  ( -1.000000000000000000, 0.0000000000000000000, 0.0000000000000000000 ) ) ;
#109 = CYLINDRICAL_SURFACE ( 'NONE', #126, 19.99999999999998900 ) ;
#110 = ORIENTED_EDGE ( 'NONE', *, *, #137, .T. ) ;
#111 = AXIS2_PLACEMENT_3D ( 'NONE', #112, #82, #124 ) ;
#112 = CARTESIAN_POINT ( 'NONE',  ( 567.8201182589053800, 80.18946772799486700, 0.0000000000000000000 ) ) ;
#113 =( LENGTH_UNIT ( ) NAMED_UNIT ( * ) SI_UNIT ( .MILLI., .METRE. ) );
#114 =( NAMED_UNIT ( * ) PLANE_ANGLE_UNIT ( ) SI_UNIT ( $, .RADIAN. ) );
#115 = ORIENTED_EDGE ( 'NONE', *, *, #22, .F. ) ;
#116 =( NAMED_UNIT ( * ) PLANE_ANGLE_UNIT ( ) SI_UNIT ( $, .RADIAN. ) );
#117 = SURFACE_SIDE_STYLE ('',( #65 ) ) ;
#118 = ADVANCED_BREP_SHAPE_REPRESENTATION ( '100145', ( #37, #11 ), #101 ) ;
#119 = EDGE_CURVE ( 'NONE', #134, #12, #38, .T. ) ;
#120 = FACE_OUTER_BOUND ( 'NONE', #39, .T. ) ;
#121 = ORIENTED_EDGE ( 'NONE', *, *, #10, .T. ) ;
#122 = FACE_OUTER_BOUND ( 'NONE', #179, .T. ) ;
#123 = ORIENTED_EDGE ( 'NONE', *, *, #87, .T. ) ;
#124 = DIRECTION ( 'NONE',  ( 0.0000000000000000000, -1.000000000000000000, 0.0000000000000000000 ) ) ;
#125 = DIRECTION ( 'NONE',  ( 0.0000000000000000000, 0.0000000000000000000, 1.000000000000000000 ) ) ;
#126 = AXIS2_PLACEMENT_3D ( 'NONE', #157, #67, #83 ) ;
#127 = CARTESIAN_POINT ( 'NONE',  ( 629.1232000199117900, 80.18946772799483800, 0.0000000000000000000 ) ) ;
#128 = DIRECTION ( 'NONE',  ( -1.000000000000000000, -0.0000000000000000000, -0.0000000000000000000 ) ) ;
#129 = APPLICATION_PROTOCOL_DEFINITION ( 'draft international standard', 'automotive_design', 1998, #23 ) ;
#130 =( NAMED_UNIT ( * ) SI_UNIT ( $, .STERADIAN. ) SOLID_ANGLE_UNIT ( ) );
#131 = AXIS2_PLACEMENT_3D ( 'NONE', #28, #36, #138 ) ;
#132 = EDGE_CURVE ( 'NONE', #77, #156, #165, .T. ) ;
#133 = ORIENTED_EDGE ( 'NONE', *, *, #154, .T. ) ;
#134 = VERTEX_POINT ( 'NONE', #142 ) ;
#135 = STYLED_ITEM ( 'NONE', ( #33 ), #118 ) ;
#136 = LINE ( 'NONE', #57, #104 ) ;
#137 = EDGE_CURVE ( 'NONE', #12, #77, #44, .T. ) ;
#138 = DIRECTION ( 'NONE',  ( 0.0000000000000000000, -1.000000000000000000, -1.224646799147353500E-016 ) ) ;
#139 = AXIS2_PLACEMENT_3D ( 'NONE', #168, #100, #171 ) ;
#140 = PRODUCT_DEFINITION_CONTEXT ( 'detailed design', #23, 'design' ) ;
#141 = ADVANCED_FACE ( 'NONE', ( #122 ), #109, .T. ) ;
#142 = CARTESIAN_POINT ( 'NONE',  ( 629.1232000199117900, 80.18946772799483800, 19.99999999999998900 ) ) ;
#143 = CARTESIAN_POINT ( 'NONE',  ( 629.1232000199117900, 80.18946772799483800, -19.99999999999998900 ) ) ;
#144 = PRODUCT_DEFINITION_SHAPE ( 'NONE', 'NONE',  #75 ) ;
#145 = CIRCLE ( 'NONE', #76, 19.99999999999998900 ) ;
#146 = APPLICATION_PROTOCOL_DEFINITION ( 'draft international standard', 'automotive_design', 1998, #61 ) ;
#147 =( NAMED_UNIT ( * ) SI_UNIT ( $, .STERADIAN. ) SOLID_ANGLE_UNIT ( ) );
#148 = DIRECTION ( 'NONE',  ( 0.0000000000000000000, 0.0000000000000000000, 1.000000000000000000 ) ) ;
#149 = SHAPE_DEFINITION_REPRESENTATION ( #144, #118 ) ;
#150 = AXIS2_PLACEMENT_3D ( 'NONE', #169, #85, #125 ) ;
#151 = SURFACE_STYLE_FILL_AREA ( #78 ) ;
#152 = DIRECTION ( 'NONE',  ( -1.000000000000000000, -0.0000000000000000000, -0.0000000000000000000 ) ) ;
#153 = ORIENTED_EDGE ( 'NONE', *, *, #106, .F. ) ;
#154 = EDGE_CURVE ( 'NONE', #60, #156, #145, .T. ) ;
#155 = SURFACE_SIDE_STYLE ('',( #151 ) ) ;
#156 = VERTEX_POINT ( 'NONE', #18 ) ;
#157 = CARTESIAN_POINT ( 'NONE',  ( 621.9286568393347400, 80.18946772799483800, 0.0000000000000000000 ) ) ;
#158 = UNCERTAINTY_MEASURE_WITH_UNIT (LENGTH_MEASURE( 1.000000000000000100E-005 ), #113, 'distance_accuracy_value', 'NONE');
#159 = CARTESIAN_POINT ( 'NONE',  ( 629.1232000199117900, 80.18946772799483800, 0.0000000000000000000 ) ) ;
#160 = PRESENTATION_LAYER_ASSIGNMENT (  '', '', ( #135 ) ) ;
#161 = SURFACE_STYLE_USAGE ( .BOTH. , #117 ) ;
#162 = AXIS2_PLACEMENT_3D ( 'NONE', #183, #64, #182 ) ;
#163 = PRODUCT_CONTEXT ( 'NONE', #61, 'mechanical' ) ;
#164 = EDGE_LOOP ( 'NONE', ( #21, #121, #54, #153 ) ) ;
#165 = LINE ( 'NONE', #41, #103 ) ;
#166 = ORIENTED_EDGE ( 'NONE', *, *, #87, .F. ) ;
#167 = FILL_AREA_STYLE_COLOUR ( '', #26 ) ;
#168 = CARTESIAN_POINT ( 'NONE',  ( 626.6232000199117900, 80.18946772799483800, 0.0000000000000000000 ) ) ;
#169 = CARTESIAN_POINT ( 'NONE',  ( 629.1232000199117900, 80.18946772799483800, 0.0000000000000000000 ) ) ;
#170 = DIRECTION ( 'NONE',  ( 0.0000000000000000000, 0.0000000000000000000, 1.000000000000000000 ) ) ;
#171 = DIRECTION ( 'NONE',  ( 0.0000000000000000000, 0.0000000000000000000, -1.000000000000000000 ) ) ;
#172 = SPHERICAL_SURFACE ( 'NONE', #162, 64.48308176100647400 ) ;
#173 = FILL_AREA_STYLE_COLOUR ( '', #107 ) ;
#174 =( GEOMETRIC_REPRESENTATION_CONTEXT ( 3 ) GLOBAL_UNCERTAINTY_ASSIGNED_CONTEXT ( ( #158 ) ) GLOBAL_UNIT_ASSIGNED_CONTEXT ( ( #113, #66, #68 ) ) REPRESENTATION_CONTEXT ( 'NONE', 'WORKASPACE' ) );
#175 = DIRECTION ( 'NONE',  ( 1.000000000000000000, 0.0000000000000000000, 0.0000000000000000000 ) ) ;
#176 = CIRCLE ( 'NONE', #72, 19.99999999999998900 ) ;
#177 = MECHANICAL_DESIGN_GEOMETRIC_PRESENTATION_REPRESENTATION (  '', ( #135 ), #14 ) ;
#178 = CYLINDRICAL_SURFACE ( 'NONE', #62, 19.99999999999998900 ) ;
#179 = EDGE_LOOP ( 'NONE', ( #110, #99, #92, #166, #34 ) ) ;
#180 = PRODUCT_RELATED_PRODUCT_CATEGORY ( 'part', '', ( #40 ) ) ;
#181 = CIRCLE ( 'NONE', #131, 64.48308176100647400 ) ;
#182 = DIRECTION ( 'NONE',  ( 0.0000000000000000000, -1.000000000000000000, 0.0000000000000000000 ) ) ;
#183 = CARTESIAN_POINT ( 'NONE',  ( 567.8201182589053800, 80.18946772799486700, 0.0000000000000000000 ) ) ;
#184 = CARTESIAN_POINT ( 'NONE',  ( 621.9286568393347400, 80.18946772799483800, 0.0000000000000000000 ) ) ;
#185 = VERTEX_POINT ( 'NONE', #102 ) ;
#186 = DIRECTION ( 'NONE',  ( 0.0000000000000000000, 0.0000000000000000000, 1.000000000000000000 ) ) ;
ENDSEC;
END-ISO-10303-21;
