ISO-10303-21;
HEADER;
FILE_DESCRIPTION (( 'STEP AP214' ),
    '1' );
FILE_NAME ('100141.STEP',
    '2019-05-15T06:27:41',
    ( '' ),
    ( '' ),
    'SwSTEP 2.0',
    'SolidWorks 2016',
    '' );
FILE_SCHEMA (( 'AUTOMOTIVE_DESIGN' ));
ENDSEC;

DATA;
#1 = EDGE_LOOP ( 'NONE', ( #90, #130, #51, #124 ) ) ;
#2 = VECTOR ( 'NONE', #23, 1000.000000000000000 ) ;
#3 = CARTESIAN_POINT ( 'NONE',  ( 108.6655743304436500, 65.02094537996225700, 20.00000000000000400 ) ) ;
#4 = EDGE_CURVE ( 'NONE', #117, #36, #14, .T. ) ;
#5 = SPHERICAL_SURFACE ( 'NONE', #126, 25.83704641350209000 ) ;
#6 = EDGE_LOOP ( 'NONE', ( #31, #159, #157, #101, #67 ) ) ;
#7 = CARTESIAN_POINT ( 'NONE',  ( 108.6655743304436500, 65.02094537996225700, 0.0000000000000000000 ) ) ;
#8 = DIRECTION ( 'NONE',  ( 0.0000000000000000000, 1.000000000000000000, 0.0000000000000000000 ) ) ;
#9 = CARTESIAN_POINT ( 'NONE',  ( 108.6655743304436500, 65.02094537996225700, 0.0000000000000000000 ) ) ;
#10 =( NAMED_UNIT ( * ) SI_UNIT ( $, .STERADIAN. ) SOLID_ANGLE_UNIT ( ) );
#11 = DIRECTION ( 'NONE',  ( -1.000000000000000000, -0.0000000000000000000, -0.0000000000000000000 ) ) ;
#12 = EDGE_CURVE ( 'NONE', #15, #173, #115, .T. ) ;
#13 = DIRECTION ( 'NONE',  ( 0.0000000000000000000, 0.0000000000000000000, 1.000000000000000000 ) ) ;
#14 = CIRCLE ( 'NONE', #64, 20.00000000000000400 ) ;
#15 = VERTEX_POINT ( 'NONE', #140 ) ;
#16 = CIRCLE ( 'NONE', #155, 20.00000000000000400 ) ;
#17 = MANIFOLD_SOLID_BREP ( 'Ðý×ª1', #103 ) ;
#18 = SURFACE_STYLE_FILL_AREA ( #95 ) ;
#19 = ADVANCED_FACE ( 'NONE', ( #166 ), #102, .T. ) ;
#20 = FACE_OUTER_BOUND ( 'NONE', #135, .T. ) ;
#21 = AXIS2_PLACEMENT_3D ( 'NONE', #22, #105, #8 ) ;
#22 = CARTESIAN_POINT ( 'NONE',  ( 99.50307109751861400, 65.02094537996225700, 0.0000000000000000000 ) ) ;
#23 = DIRECTION ( 'NONE',  ( -1.000000000000000000, -0.0000000000000000000, -0.0000000000000000000 ) ) ;
#24 = ORIENTED_EDGE ( 'NONE', *, *, #138, .T. ) ;
#25 = MECHANICAL_DESIGN_GEOMETRIC_PRESENTATION_REPRESENTATION (  '', ( #58 ), #116 ) ;
#26 = APPLICATION_PROTOCOL_DEFINITION ( 'draft international standard', 'automotive_design', 1998, #96 ) ;
#27 = DIRECTION ( 'NONE',  ( 1.000000000000000000, 0.0000000000000000000, 0.0000000000000000000 ) ) ;
#28 = DIRECTION ( 'NONE',  ( -1.000000000000000000, -0.0000000000000000000, -0.0000000000000000000 ) ) ;
#29 = CIRCLE ( 'NONE', #108, 25.83704641350209700 ) ;
#30 = AXIS2_PLACEMENT_3D ( 'NONE', #121, #48, #142 ) ;
#31 = ORIENTED_EDGE ( 'NONE', *, *, #4, .T. ) ;
#32 = AXIS2_PLACEMENT_3D ( 'NONE', #170, #184, #137 ) ;
#33 = DIRECTION ( 'NONE',  ( 1.000000000000000000, 0.0000000000000000000, 0.0000000000000000000 ) ) ;
#34 = CIRCLE ( 'NONE', #175, 20.00000000000000400 ) ;
#35 = DIRECTION ( 'NONE',  ( -1.000000000000000000, -0.0000000000000000000, -0.0000000000000000000 ) ) ;
#36 = VERTEX_POINT ( 'NONE', #134 ) ;
#37 = ADVANCED_BREP_SHAPE_REPRESENTATION ( '100141', ( #17, #161 ), #63 ) ;
#38 = CIRCLE ( 'NONE', #30, 25.83704641350208300 ) ;
#39 = AXIS2_PLACEMENT_3D ( 'NONE', #61, #11, #154 ) ;
#40 = DIRECTION ( 'NONE',  ( 0.0000000000000000000, 0.0000000000000000000, 1.000000000000000000 ) ) ;
#41 = ORIENTED_EDGE ( 'NONE', *, *, #158, .F. ) ;
#42 = PRODUCT_DEFINITION_SHAPE ( 'NONE', 'NONE',  #129 ) ;
#43 =( LENGTH_UNIT ( ) NAMED_UNIT ( * ) SI_UNIT ( .MILLI., .METRE. ) );
#44 = SURFACE_SIDE_STYLE ('',( #18 ) ) ;
#45 = DIRECTION ( 'NONE',  ( 0.0000000000000000000, 0.0000000000000000000, 1.000000000000000000 ) ) ;
#46 = DIRECTION ( 'NONE',  ( 0.0000000000000000000, 0.0000000000000000000, 1.000000000000000000 ) ) ;
#47 = AXIS2_PLACEMENT_3D ( 'NONE', #9, #150, #40 ) ;
#48 = DIRECTION ( 'NONE',  ( -0.0000000000000000000, 0.0000000000000000000, 1.000000000000000000 ) ) ;
#49 = EDGE_CURVE ( 'NONE', #80, #171, #29, .T. ) ;
#50 = CIRCLE ( 'NONE', #39, 20.00000000000000400 ) ;
#51 = ORIENTED_EDGE ( 'NONE', *, *, #163, .F. ) ;
#52 = PRESENTATION_LAYER_ASSIGNMENT (  '', '', ( #132 ) ) ;
#53 = SURFACE_STYLE_USAGE ( .BOTH. , #160 ) ;
#54 = PRESENTATION_STYLE_ASSIGNMENT (( #60 ) ) ;
#55 = DIRECTION ( 'NONE',  ( 0.0000000000000000000, 0.0000000000000000000, 1.000000000000000000 ) ) ;
#56 = ORIENTED_EDGE ( 'NONE', *, *, #12, .T. ) ;
#57 = CYLINDRICAL_SURFACE ( 'NONE', #47, 20.00000000000000400 ) ;
#58 = STYLED_ITEM ( 'NONE', ( #54 ), #17 ) ;
#59 = APPLICATION_CONTEXT ( 'automotive_design' ) ;
#60 = SURFACE_STYLE_USAGE ( .BOTH. , #44 ) ;
#61 = CARTESIAN_POINT ( 'NONE',  ( 115.8601175110206900, 65.02094537996225700, 0.0000000000000000000 ) ) ;
#62 = COLOUR_RGB ( '',1.000000000000000000, 1.000000000000000000, 1.000000000000000000 ) ;
#63 =( GEOMETRIC_REPRESENTATION_CONTEXT ( 3 ) GLOBAL_UNCERTAINTY_ASSIGNED_CONTEXT ( ( #73 ) ) GLOBAL_UNIT_ASSIGNED_CONTEXT ( ( #43, #72, #10 ) ) REPRESENTATION_CONTEXT ( 'NONE', 'WORKASPACE' ) );
#64 = AXIS2_PLACEMENT_3D ( 'NONE', #123, #119, #46 ) ;
#65 = CARTESIAN_POINT ( 'NONE',  ( 113.3601175110206900, 65.02094537996225700, 0.0000000000000000000 ) ) ;
#66 = ORIENTED_EDGE ( 'NONE', *, *, #183, .T. ) ;
#67 = ORIENTED_EDGE ( 'NONE', *, *, #158, .T. ) ;
#68 = PRODUCT_DEFINITION_CONTEXT ( 'detailed design', #59, 'design' ) ;
#69 = CARTESIAN_POINT ( 'NONE',  ( 99.50307109751861400, 65.02094537996225700, 0.0000000000000000000 ) ) ;
#70 = FILL_AREA_STYLE_COLOUR ( '', #62 ) ;
#71 = ORIENTED_EDGE ( 'NONE', *, *, #183, .F. ) ;
#72 =( NAMED_UNIT ( * ) PLANE_ANGLE_UNIT ( ) SI_UNIT ( $, .RADIAN. ) );
#73 = UNCERTAINTY_MEASURE_WITH_UNIT (LENGTH_MEASURE( 1.000000000000000100E-005 ), #43, 'distance_accuracy_value', 'NONE');
#74 =( NAMED_UNIT ( * ) PLANE_ANGLE_UNIT ( ) SI_UNIT ( $, .RADIAN. ) );
#75 = CARTESIAN_POINT ( 'NONE',  ( 115.8601175110206900, 65.02094537996225700, 0.0000000000000000000 ) ) ;
#76 = LINE ( 'NONE', #81, #2 ) ;
#77 = PRESENTATION_STYLE_ASSIGNMENT (( #53 ) ) ;
#78 = CARTESIAN_POINT ( 'NONE',  ( 115.8601175110206900, 85.02094537996224200, 0.0000000000000000000 ) ) ;
#79 = PLANE ( 'NONE',  #143 ) ;
#80 = VERTEX_POINT ( 'NONE', #92 ) ;
#81 = CARTESIAN_POINT ( 'NONE',  ( 108.6655743304436500, 65.02094537996225700, -20.00000000000000400 ) ) ;
#82 = DIRECTION ( 'NONE',  ( 0.0000000000000000000, 1.224646799147353200E-016, -1.000000000000000000 ) ) ;
#83 = FILL_AREA_STYLE ('',( #152 ) ) ;
#84 = ADVANCED_FACE ( 'NONE', ( #178 ), #57, .T. ) ;
#85 = CARTESIAN_POINT ( 'NONE',  ( 113.3601175110206900, 65.02094537996225700, 20.00000000000000400 ) ) ;
#86 = ADVANCED_FACE ( 'NONE', ( #141 ), #110, .T. ) ;
#87 = EDGE_LOOP ( 'NONE', ( #114, #145, #66, #24, #93 ) ) ;
#88 = VERTEX_POINT ( 'NONE', #133 ) ;
#89 =( NAMED_UNIT ( * ) PLANE_ANGLE_UNIT ( ) SI_UNIT ( $, .RADIAN. ) );
#90 = ORIENTED_EDGE ( 'NONE', *, *, #169, .F. ) ;
#91 = PRODUCT_RELATED_PRODUCT_CATEGORY ( 'part', '', ( #100 ) ) ;
#92 = CARTESIAN_POINT ( 'NONE',  ( 125.3401175110206900, 65.02094537996225700, 0.0000000000000000000 ) ) ;
#93 = ORIENTED_EDGE ( 'NONE', *, *, #12, .F. ) ;
#94 = DIRECTION ( 'NONE',  ( -0.0000000000000000000, 0.0000000000000000000, -1.000000000000000000 ) ) ;
#95 = FILL_AREA_STYLE ('',( #70 ) ) ;
#96 = APPLICATION_CONTEXT ( 'automotive_design' ) ;
#97 = EDGE_CURVE ( 'NONE', #36, #15, #76, .T. ) ;
#98 = CARTESIAN_POINT ( 'NONE',  ( 113.3601175110206900, 65.02094537996225700, 0.0000000000000000000 ) ) ;
#99 = FACE_OUTER_BOUND ( 'NONE', #112, .T. ) ;
#100 = PRODUCT ( '100141', '100141', '', ( #136 ) ) ;
#101 = ORIENTED_EDGE ( 'NONE', *, *, #138, .F. ) ;
#102 = SPHERICAL_SURFACE ( 'NONE', #21, 25.83704641350209000 ) ;
#103 = CLOSED_SHELL ( 'NONE', ( #84, #19, #111, #86, #131 ) ) ;
#104 = DIRECTION ( 'NONE',  ( -1.000000000000000000, -0.0000000000000000000, -0.0000000000000000000 ) ) ;
#105 = DIRECTION ( 'NONE',  ( -0.0000000000000000000, 0.0000000000000000000, -1.000000000000000000 ) ) ;
#106 = DIRECTION ( 'NONE',  ( 0.0000000000000000000, 1.000000000000000000, 0.0000000000000000000 ) ) ;
#107 = APPLICATION_PROTOCOL_DEFINITION ( 'draft international standard', 'automotive_design', 1998, #59 ) ;
#108 = AXIS2_PLACEMENT_3D ( 'NONE', #118, #82, #179 ) ;
#109 = CARTESIAN_POINT ( 'NONE',  ( 115.8601175110206900, 45.02094537996224900, -2.449293598294706500E-015 ) ) ;
#110 = CYLINDRICAL_SURFACE ( 'NONE', #148, 20.00000000000000400 ) ;
#111 = ADVANCED_FACE ( 'NONE', ( #20 ), #5, .T. ) ;
#112 = EDGE_LOOP ( 'NONE', ( #146, #56 ) ) ;
#113 = SURFACE_STYLE_FILL_AREA ( #83 ) ;
#114 = ORIENTED_EDGE ( 'NONE', *, *, #97, .F. ) ;
#115 = CIRCLE ( 'NONE', #32, 20.00000000000000400 ) ;
#116 =( GEOMETRIC_REPRESENTATION_CONTEXT ( 3 ) GLOBAL_UNCERTAINTY_ASSIGNED_CONTEXT ( ( #181 ) ) GLOBAL_UNIT_ASSIGNED_CONTEXT ( ( #153, #74, #185 ) ) REPRESENTATION_CONTEXT ( 'NONE', 'WORKASPACE' ) );
#117 = VERTEX_POINT ( 'NONE', #78 ) ;
#118 = CARTESIAN_POINT ( 'NONE',  ( 99.50307109751861400, 65.02094537996225700, 0.0000000000000000000 ) ) ;
#119 = DIRECTION ( 'NONE',  ( -1.000000000000000000, -0.0000000000000000000, -0.0000000000000000000 ) ) ;
#120 = DIRECTION ( 'NONE',  ( -1.000000000000000000, -0.0000000000000000000, -0.0000000000000000000 ) ) ;
#121 = CARTESIAN_POINT ( 'NONE',  ( 99.50307109751861400, 65.02094537996225700, 0.0000000000000000000 ) ) ;
#122 = AXIS2_PLACEMENT_3D ( 'NONE', #75, #28, #45 ) ;
#123 = CARTESIAN_POINT ( 'NONE',  ( 115.8601175110206900, 65.02094537996225700, 0.0000000000000000000 ) ) ;
#124 = ORIENTED_EDGE ( 'NONE', *, *, #4, .F. ) ;
#125 = CIRCLE ( 'NONE', #122, 20.00000000000000400 ) ;
#126 = AXIS2_PLACEMENT_3D ( 'NONE', #69, #94, #106 ) ;
#127 = DIRECTION ( 'NONE',  ( -1.000000000000000000, -0.0000000000000000000, -0.0000000000000000000 ) ) ;
#128 = DIRECTION ( 'NONE',  ( 0.0000000000000000000, 0.0000000000000000000, 1.000000000000000000 ) ) ;
#129 = PRODUCT_DEFINITION ( 'Î´Öª', '', #186, #68 ) ;
#130 = ORIENTED_EDGE ( 'NONE', *, *, #49, .T. ) ;
#131 = ADVANCED_FACE ( 'NONE', ( #99 ), #79, .F. ) ;
#132 = STYLED_ITEM ( 'NONE', ( #77 ), #37 ) ;
#133 = CARTESIAN_POINT ( 'NONE',  ( 115.8601175110206900, 65.02094537996225700, 20.00000000000000400 ) ) ;
#134 = CARTESIAN_POINT ( 'NONE',  ( 115.8601175110206900, 65.02094537996225700, -20.00000000000000400 ) ) ;
#135 = EDGE_LOOP ( 'NONE', ( #180, #177, #41, #71 ) ) ;
#136 = PRODUCT_CONTEXT ( 'NONE', #96, 'mechanical' ) ;
#137 = DIRECTION ( 'NONE',  ( 0.0000000000000000000, 0.0000000000000000000, 1.000000000000000000 ) ) ;
#138 = EDGE_CURVE ( 'NONE', #88, #173, #167, .T. ) ;
#139 = DIRECTION ( 'NONE',  ( 0.0000000000000000000, 0.0000000000000000000, 1.000000000000000000 ) ) ;
#140 = CARTESIAN_POINT ( 'NONE',  ( 113.3601175110206900, 65.02094537996225700, -20.00000000000000400 ) ) ;
#141 = FACE_OUTER_BOUND ( 'NONE', #87, .T. ) ;
#142 = DIRECTION ( 'NONE',  ( 1.000000000000000000, 0.0000000000000000000, 0.0000000000000000000 ) ) ;
#143 = AXIS2_PLACEMENT_3D ( 'NONE', #65, #33, #162 ) ;
#144 =( GEOMETRIC_REPRESENTATION_CONTEXT ( 3 ) GLOBAL_UNCERTAINTY_ASSIGNED_CONTEXT ( ( #147 ) ) GLOBAL_UNIT_ASSIGNED_CONTEXT ( ( #176, #89, #156 ) ) REPRESENTATION_CONTEXT ( 'NONE', 'WORKASPACE' ) );
#145 = ORIENTED_EDGE ( 'NONE', *, *, #163, .T. ) ;
#146 = ORIENTED_EDGE ( 'NONE', *, *, #151, .T. ) ;
#147 = UNCERTAINTY_MEASURE_WITH_UNIT (LENGTH_MEASURE( 1.000000000000000100E-005 ), #176, 'distance_accuracy_value', 'NONE');
#148 = AXIS2_PLACEMENT_3D ( 'NONE', #7, #104, #55 ) ;
#149 = COLOUR_RGB ( '',1.000000000000000000, 1.000000000000000000, 1.000000000000000000 ) ;
#150 = DIRECTION ( 'NONE',  ( -1.000000000000000000, -0.0000000000000000000, -0.0000000000000000000 ) ) ;
#151 = EDGE_CURVE ( 'NONE', #173, #15, #34, .T. ) ;
#152 = FILL_AREA_STYLE_COLOUR ( '', #149 ) ;
#153 =( LENGTH_UNIT ( ) NAMED_UNIT ( * ) SI_UNIT ( .MILLI., .METRE. ) );
#154 = DIRECTION ( 'NONE',  ( 0.0000000000000000000, 0.0000000000000000000, 1.000000000000000000 ) ) ;
#155 = AXIS2_PLACEMENT_3D ( 'NONE', #168, #120, #139 ) ;
#156 =( NAMED_UNIT ( * ) SI_UNIT ( $, .STERADIAN. ) SOLID_ANGLE_UNIT ( ) );
#157 = ORIENTED_EDGE ( 'NONE', *, *, #151, .F. ) ;
#158 = EDGE_CURVE ( 'NONE', #88, #117, #125, .T. ) ;
#159 = ORIENTED_EDGE ( 'NONE', *, *, #97, .T. ) ;
#160 = SURFACE_SIDE_STYLE ('',( #113 ) ) ;
#161 = AXIS2_PLACEMENT_3D ( 'NONE', #182, #13, #27 ) ;
#162 = DIRECTION ( 'NONE',  ( 0.0000000000000000000, 0.0000000000000000000, -1.000000000000000000 ) ) ;
#163 = EDGE_CURVE ( 'NONE', #36, #171, #50, .T. ) ;
#164 = VECTOR ( 'NONE', #35, 1000.000000000000000 ) ;
#165 = MECHANICAL_DESIGN_GEOMETRIC_PRESENTATION_REPRESENTATION (  '', ( #132 ), #144 ) ;
#166 = FACE_OUTER_BOUND ( 'NONE', #1, .T. ) ;
#167 = LINE ( 'NONE', #3, #164 ) ;
#168 = CARTESIAN_POINT ( 'NONE',  ( 115.8601175110206900, 65.02094537996225700, 0.0000000000000000000 ) ) ;
#169 = EDGE_CURVE ( 'NONE', #80, #117, #38, .T. ) ;
#170 = CARTESIAN_POINT ( 'NONE',  ( 113.3601175110206900, 65.02094537996225700, 0.0000000000000000000 ) ) ;
#171 = VERTEX_POINT ( 'NONE', #109 ) ;
#172 = PRESENTATION_LAYER_ASSIGNMENT (  '', '', ( #58 ) ) ;
#173 = VERTEX_POINT ( 'NONE', #85 ) ;
#174 = SHAPE_DEFINITION_REPRESENTATION ( #42, #37 ) ;
#175 = AXIS2_PLACEMENT_3D ( 'NONE', #98, #127, #128 ) ;
#176 =( LENGTH_UNIT ( ) NAMED_UNIT ( * ) SI_UNIT ( .MILLI., .METRE. ) );
#177 = ORIENTED_EDGE ( 'NONE', *, *, #169, .T. ) ;
#178 = FACE_OUTER_BOUND ( 'NONE', #6, .T. ) ;
#179 = DIRECTION ( 'NONE',  ( 0.0000000000000000000, 1.000000000000000000, 1.224646799147353000E-016 ) ) ;
#180 = ORIENTED_EDGE ( 'NONE', *, *, #49, .F. ) ;
#181 = UNCERTAINTY_MEASURE_WITH_UNIT (LENGTH_MEASURE( 1.000000000000000100E-005 ), #153, 'distance_accuracy_value', 'NONE');
#182 = CARTESIAN_POINT ( 'NONE',  ( 0.0000000000000000000, 0.0000000000000000000, 0.0000000000000000000 ) ) ;
#183 = EDGE_CURVE ( 'NONE', #171, #88, #16, .T. ) ;
#184 = DIRECTION ( 'NONE',  ( -1.000000000000000000, -0.0000000000000000000, -0.0000000000000000000 ) ) ;
#185 =( NAMED_UNIT ( * ) SI_UNIT ( $, .STERADIAN. ) SOLID_ANGLE_UNIT ( ) );
#186 = PRODUCT_DEFINITION_FORMATION_WITH_SPECIFIED_SOURCE ( 'ÈÎºÎ', '', #100, .NOT_KNOWN. ) ;
ENDSEC;
END-ISO-10303-21;
