ISO-10303-21;
HEADER;
FILE_DESCRIPTION (( 'STEP AP214' ),
    '1' );
FILE_NAME ('100046.STEP',
    '2019-04-29T08:39:51',
    ( '' ),
    ( '' ),
    'SwSTEP 2.0',
    'SolidWorks 2016',
    '' );
FILE_SCHEMA (( 'AUTOMOTIVE_DESIGN' ));
ENDSEC;

DATA;
#1 = EDGE_LOOP ( 'NONE', ( #26, #74, #96, #152, #111 ) ) ;
#2 = DIRECTION ( 'NONE',  ( 1.000000000000000000, 0.0000000000000000000, 0.0000000000000000000 ) ) ;
#3 = CARTESIAN_POINT ( 'NONE',  ( 1230.948058844172200, 317.4353454169889800, 0.0000000000000000000 ) ) ;
#4 = DIRECTION ( 'NONE',  ( 0.0000000000000000000, 0.0000000000000000000, 1.000000000000000000 ) ) ;
#5 = ORIENTED_EDGE ( 'NONE', *, *, #170, .T. ) ;
#6 =( NAMED_UNIT ( * ) PLANE_ANGLE_UNIT ( ) SI_UNIT ( $, .RADIAN. ) );
#7 = ORIENTED_EDGE ( 'NONE', *, *, #70, .T. ) ;
#8 = CIRCLE ( 'NONE', #139, 12.50000000000001100 ) ;
#9 = AXIS2_PLACEMENT_3D ( 'NONE', #61, #77, #186 ) ;
#10 = ORIENTED_EDGE ( 'NONE', *, *, #75, .F. ) ;
#11 = CIRCLE ( 'NONE', #99, 12.50000000000001100 ) ;
#12 = AXIS2_PLACEMENT_3D ( 'NONE', #18, #97, #179 ) ;
#13 = CIRCLE ( 'NONE', #9, 12.50000000000001100 ) ;
#14 = CARTESIAN_POINT ( 'NONE',  ( 1230.948058844172200, 317.4353454169889800, 12.50000000000001100 ) ) ;
#15 = DIRECTION ( 'NONE',  ( 0.0000000000000000000, 0.0000000000000000000, 1.000000000000000000 ) ) ;
#16 = CARTESIAN_POINT ( 'NONE',  ( 1230.948058844172200, 317.4353454169889800, -12.50000000000001100 ) ) ;
#17 = AXIS2_PLACEMENT_3D ( 'NONE', #119, #32, #2 ) ;
#18 = CARTESIAN_POINT ( 'NONE',  ( 1230.948058844172200, 317.4353454169889800, 0.0000000000000000000 ) ) ;
#19 = FILL_AREA_STYLE_COLOUR ( '', #142 ) ;
#20 = CARTESIAN_POINT ( 'NONE',  ( 1224.206027602282100, 317.4353454169889800, 12.50000000000001100 ) ) ;
#21 = CIRCLE ( 'NONE', #86, 12.50000000000001100 ) ;
#22 = CARTESIAN_POINT ( 'NONE',  ( 1224.206027602282100, 317.4353454169889800, 0.0000000000000000000 ) ) ;
#23 = SURFACE_STYLE_USAGE ( .BOTH. , #149 ) ;
#24 = APPLICATION_CONTEXT ( 'automotive_design' ) ;
#25 = AXIS2_PLACEMENT_3D ( 'NONE', #49, #145, #63 ) ;
#26 = ORIENTED_EDGE ( 'NONE', *, *, #148, .T. ) ;
#27 = UNCERTAINTY_MEASURE_WITH_UNIT (LENGTH_MEASURE( 1.000000000000000100E-005 ), #84, 'distance_accuracy_value', 'NONE');
#28 = PRODUCT ( '100046', '100046', '', ( #106 ) ) ;
#29 = VERTEX_POINT ( 'NONE', #60 ) ;
#30 = DIRECTION ( 'NONE',  ( -1.000000000000000000, -0.0000000000000000000, -0.0000000000000000000 ) ) ;
#31 = CARTESIAN_POINT ( 'NONE',  ( 1231.898058844172100, 317.4353454169887500, 0.0000000000000000000 ) ) ;
#32 = DIRECTION ( 'NONE',  ( -0.0000000000000000000, 0.0000000000000000000, 1.000000000000000000 ) ) ;
#33 = EDGE_LOOP ( 'NONE', ( #155, #128, #140, #88, #40 ) ) ;
#34 = AXIS2_PLACEMENT_3D ( 'NONE', #64, #175, #55 ) ;
#35 = CARTESIAN_POINT ( 'NONE',  ( 1149.186216738909000, 317.4353454169887500, 0.0000000000000000000 ) ) ;
#36 = CIRCLE ( 'NONE', #17, 82.71184210526305900 ) ;
#37 =( LENGTH_UNIT ( ) NAMED_UNIT ( * ) SI_UNIT ( .MILLI., .METRE. ) );
#38 = CARTESIAN_POINT ( 'NONE',  ( 1224.206027602282100, 317.4353454169889800, -12.50000000000001100 ) ) ;
#39 = MECHANICAL_DESIGN_GEOMETRIC_PRESENTATION_REPRESENTATION (  '', ( #153 ), #181 ) ;
#40 = ORIENTED_EDGE ( 'NONE', *, *, #170, .F. ) ;
#41 = ADVANCED_FACE ( 'NONE', ( #137 ), #100, .T. ) ;
#42 = AXIS2_PLACEMENT_3D ( 'NONE', #143, #117, #161 ) ;
#43 = VERTEX_POINT ( 'NONE', #14 ) ;
#44 = MECHANICAL_DESIGN_GEOMETRIC_PRESENTATION_REPRESENTATION (  '', ( #79 ), #71 ) ;
#45 = CARTESIAN_POINT ( 'NONE',  ( 1228.948058844172200, 317.4353454169889800, 0.0000000000000000000 ) ) ;
#46 = SURFACE_STYLE_FILL_AREA ( #80 ) ;
#47 = CARTESIAN_POINT ( 'NONE',  ( 1230.948058844172200, 317.4353454169889800, 0.0000000000000000000 ) ) ;
#48 = PRESENTATION_LAYER_ASSIGNMENT (  '', '', ( #79 ) ) ;
#49 = CARTESIAN_POINT ( 'NONE',  ( 0.0000000000000000000, 0.0000000000000000000, 0.0000000000000000000 ) ) ;
#50 = ORIENTED_EDGE ( 'NONE', *, *, #157, .T. ) ;
#51 = DIRECTION ( 'NONE',  ( -0.0000000000000000000, 0.0000000000000000000, -1.000000000000000000 ) ) ;
#52 = AXIS2_PLACEMENT_3D ( 'NONE', #47, #62, #132 ) ;
#53 = CYLINDRICAL_SURFACE ( 'NONE', #90, 12.50000000000001100 ) ;
#54 = DIRECTION ( 'NONE',  ( -1.000000000000000000, -0.0000000000000000000, -0.0000000000000000000 ) ) ;
#55 = DIRECTION ( 'NONE',  ( 0.0000000000000000000, 1.000000000000000000, 1.224646799147353200E-016 ) ) ;
#56 = VERTEX_POINT ( 'NONE', #31 ) ;
#57 = PRODUCT_DEFINITION ( 'Î´Öª', '', #65, #116 ) ;
#58 = ORIENTED_EDGE ( 'NONE', *, *, #157, .F. ) ;
#59 = VERTEX_POINT ( 'NONE', #159 ) ;
#60 = CARTESIAN_POINT ( 'NONE',  ( 1228.948058844172200, 317.4353454169889800, 12.50000000000001100 ) ) ;
#61 = CARTESIAN_POINT ( 'NONE',  ( 1230.948058844172200, 317.4353454169889800, 0.0000000000000000000 ) ) ;
#62 = DIRECTION ( 'NONE',  ( -1.000000000000000000, -0.0000000000000000000, -0.0000000000000000000 ) ) ;
#63 = DIRECTION ( 'NONE',  ( 1.000000000000000000, 0.0000000000000000000, 0.0000000000000000000 ) ) ;
#64 = CARTESIAN_POINT ( 'NONE',  ( 1149.186216738909000, 317.4353454169887500, 0.0000000000000000000 ) ) ;
#65 = PRODUCT_DEFINITION_FORMATION_WITH_SPECIFIED_SOURCE ( 'ÈÎºÎ', '', #28, .NOT_KNOWN. ) ;
#66 = SURFACE_SIDE_STYLE ('',( #110 ) ) ;
#67 = EDGE_LOOP ( 'NONE', ( #130, #50, #184, #171 ) ) ;
#68 = DIRECTION ( 'NONE',  ( -1.000000000000000000, -0.0000000000000000000, -0.0000000000000000000 ) ) ;
#69 =( NAMED_UNIT ( * ) SI_UNIT ( $, .STERADIAN. ) SOLID_ANGLE_UNIT ( ) );
#70 = EDGE_CURVE ( 'NONE', #29, #59, #21, .T. ) ;
#71 =( GEOMETRIC_REPRESENTATION_CONTEXT ( 3 ) GLOBAL_UNCERTAINTY_ASSIGNED_CONTEXT ( ( #83 ) ) GLOBAL_UNIT_ASSIGNED_CONTEXT ( ( #37, #178, #118 ) ) REPRESENTATION_CONTEXT ( 'NONE', 'WORKASPACE' ) );
#72 = ADVANCED_FACE ( 'NONE', ( #166 ), #91, .T. ) ;
#73 = CIRCLE ( 'NONE', #12, 12.50000000000001100 ) ;
#74 = ORIENTED_EDGE ( 'NONE', *, *, #120, .T. ) ;
#75 = EDGE_CURVE ( 'NONE', #94, #113, #162, .T. ) ;
#76 = SPHERICAL_SURFACE ( 'NONE', #105, 82.71184210526307400 ) ;
#77 = DIRECTION ( 'NONE',  ( -1.000000000000000000, -0.0000000000000000000, -0.0000000000000000000 ) ) ;
#78 = EDGE_CURVE ( 'NONE', #43, #108, #13, .T. ) ;
#79 = STYLED_ITEM ( 'NONE', ( #174 ), #115 ) ;
#80 = FILL_AREA_STYLE ('',( #173 ) ) ;
#81 = FACE_OUTER_BOUND ( 'NONE', #1, .T. ) ;
#82 =( NAMED_UNIT ( * ) SI_UNIT ( $, .STERADIAN. ) SOLID_ANGLE_UNIT ( ) );
#83 = UNCERTAINTY_MEASURE_WITH_UNIT (LENGTH_MEASURE( 1.000000000000000100E-005 ), #37, 'distance_accuracy_value', 'NONE');
#84 =( LENGTH_UNIT ( ) NAMED_UNIT ( * ) SI_UNIT ( .MILLI., .METRE. ) );
#85 = VECTOR ( 'NONE', #176, 1000.000000000000000 ) ;
#86 = AXIS2_PLACEMENT_3D ( 'NONE', #45, #185, #104 ) ;
#87 = ADVANCED_FACE ( 'NONE', ( #160 ), #103, .F. ) ;
#88 = ORIENTED_EDGE ( 'NONE', *, *, #164, .T. ) ;
#89 = ORIENTED_EDGE ( 'NONE', *, *, #148, .F. ) ;
#90 = AXIS2_PLACEMENT_3D ( 'NONE', #22, #98, #109 ) ;
#91 = CYLINDRICAL_SURFACE ( 'NONE', #123, 12.50000000000001100 ) ;
#92 = CARTESIAN_POINT ( 'NONE',  ( 1224.206027602282100, 317.4353454169889800, 0.0000000000000000000 ) ) ;
#93 = DIRECTION ( 'NONE',  ( 0.0000000000000000000, 0.0000000000000000000, -1.000000000000000000 ) ) ;
#94 = VERTEX_POINT ( 'NONE', #16 ) ;
#95 = SHAPE_DEFINITION_REPRESENTATION ( #102, #158 ) ;
#96 = ORIENTED_EDGE ( 'NONE', *, *, #70, .F. ) ;
#97 = DIRECTION ( 'NONE',  ( -1.000000000000000000, -0.0000000000000000000, -0.0000000000000000000 ) ) ;
#98 = DIRECTION ( 'NONE',  ( -1.000000000000000000, -0.0000000000000000000, -0.0000000000000000000 ) ) ;
#99 = AXIS2_PLACEMENT_3D ( 'NONE', #136, #54, #133 ) ;
#100 = SPHERICAL_SURFACE ( 'NONE', #42, 82.71184210526307400 ) ;
#101 = LINE ( 'NONE', #20, #114 ) ;
#102 = PRODUCT_DEFINITION_SHAPE ( 'NONE', 'NONE',  #57 ) ;
#103 = PLANE ( 'NONE',  #124 ) ;
#104 = DIRECTION ( 'NONE',  ( 0.0000000000000000000, 0.0000000000000000000, 1.000000000000000000 ) ) ;
#105 = AXIS2_PLACEMENT_3D ( 'NONE', #35, #51, #163 ) ;
#106 = PRODUCT_CONTEXT ( 'NONE', #107, 'mechanical' ) ;
#107 = APPLICATION_CONTEXT ( 'automotive_design' ) ;
#108 = VERTEX_POINT ( 'NONE', #144 ) ;
#109 = DIRECTION ( 'NONE',  ( 0.0000000000000000000, 0.0000000000000000000, 1.000000000000000000 ) ) ;
#110 = SURFACE_STYLE_FILL_AREA ( #167 ) ;
#111 = ORIENTED_EDGE ( 'NONE', *, *, #78, .T. ) ;
#112 = EDGE_CURVE ( 'NONE', #113, #43, #73, .T. ) ;
#113 = VERTEX_POINT ( 'NONE', #141 ) ;
#114 = VECTOR ( 'NONE', #68, 1000.000000000000000 ) ;
#115 = MANIFOLD_SOLID_BREP ( 'Ðý×ª1', #177 ) ;
#116 = PRODUCT_DEFINITION_CONTEXT ( 'detailed design', #24, 'design' ) ;
#117 = DIRECTION ( 'NONE',  ( -0.0000000000000000000, 0.0000000000000000000, -1.000000000000000000 ) ) ;
#118 =( NAMED_UNIT ( * ) SI_UNIT ( $, .STERADIAN. ) SOLID_ANGLE_UNIT ( ) );
#119 = CARTESIAN_POINT ( 'NONE',  ( 1149.186216738909000, 317.4353454169887500, 0.0000000000000000000 ) ) ;
#120 = EDGE_CURVE ( 'NONE', #94, #59, #127, .T. ) ;
#121 = APPLICATION_PROTOCOL_DEFINITION ( 'draft international standard', 'automotive_design', 1998, #107 ) ;
#122 = COLOUR_RGB ( '',1.000000000000000000, 1.000000000000000000, 1.000000000000000000 ) ;
#123 = AXIS2_PLACEMENT_3D ( 'NONE', #92, #30, #15 ) ;
#124 = AXIS2_PLACEMENT_3D ( 'NONE', #131, #129, #93 ) ;
#125 = ADVANCED_FACE ( 'NONE', ( #151 ), #76, .T. ) ;
#126 = UNCERTAINTY_MEASURE_WITH_UNIT (LENGTH_MEASURE( 1.000000000000000100E-005 ), #135, 'distance_accuracy_value', 'NONE');
#127 = LINE ( 'NONE', #38, #85 ) ;
#128 = ORIENTED_EDGE ( 'NONE', *, *, #75, .T. ) ;
#129 = DIRECTION ( 'NONE',  ( 1.000000000000000000, 0.0000000000000000000, 0.0000000000000000000 ) ) ;
#130 = ORIENTED_EDGE ( 'NONE', *, *, #138, .F. ) ;
#131 = CARTESIAN_POINT ( 'NONE',  ( 1228.948058844172200, 317.4353454169889800, 0.0000000000000000000 ) ) ;
#132 = DIRECTION ( 'NONE',  ( 0.0000000000000000000, 0.0000000000000000000, 1.000000000000000000 ) ) ;
#133 = DIRECTION ( 'NONE',  ( 0.0000000000000000000, 0.0000000000000000000, 1.000000000000000000 ) ) ;
#134 =( GEOMETRIC_REPRESENTATION_CONTEXT ( 3 ) GLOBAL_UNCERTAINTY_ASSIGNED_CONTEXT ( ( #126 ) ) GLOBAL_UNIT_ASSIGNED_CONTEXT ( ( #135, #6, #69 ) ) REPRESENTATION_CONTEXT ( 'NONE', 'WORKASPACE' ) );
#135 =( LENGTH_UNIT ( ) NAMED_UNIT ( * ) SI_UNIT ( .MILLI., .METRE. ) );
#136 = CARTESIAN_POINT ( 'NONE',  ( 1228.948058844172200, 317.4353454169889800, 0.0000000000000000000 ) ) ;
#137 = FACE_OUTER_BOUND ( 'NONE', #146, .T. ) ;
#138 = EDGE_CURVE ( 'NONE', #56, #113, #154, .T. ) ;
#139 = AXIS2_PLACEMENT_3D ( 'NONE', #3, #150, #4 ) ;
#140 = ORIENTED_EDGE ( 'NONE', *, *, #112, .T. ) ;
#141 = CARTESIAN_POINT ( 'NONE',  ( 1230.948058844172200, 304.9353454169888100, -1.530808498934186800E-015 ) ) ;
#142 = COLOUR_RGB ( '',1.000000000000000000, 1.000000000000000000, 1.000000000000000000 ) ;
#143 = CARTESIAN_POINT ( 'NONE',  ( 1149.186216738909000, 317.4353454169887500, 0.0000000000000000000 ) ) ;
#144 = CARTESIAN_POINT ( 'NONE',  ( 1230.948058844172200, 329.9353454169889200, 0.0000000000000000000 ) ) ;
#145 = DIRECTION ( 'NONE',  ( 0.0000000000000000000, 0.0000000000000000000, 1.000000000000000000 ) ) ;
#146 = EDGE_LOOP ( 'NONE', ( #58, #182, #10, #89 ) ) ;
#147 = SURFACE_STYLE_USAGE ( .BOTH. , #66 ) ;
#148 = EDGE_CURVE ( 'NONE', #108, #94, #8, .T. ) ;
#149 = SURFACE_SIDE_STYLE ('',( #46 ) ) ;
#150 = DIRECTION ( 'NONE',  ( -1.000000000000000000, -0.0000000000000000000, -0.0000000000000000000 ) ) ;
#151 = FACE_OUTER_BOUND ( 'NONE', #67, .T. ) ;
#152 = ORIENTED_EDGE ( 'NONE', *, *, #164, .F. ) ;
#153 = STYLED_ITEM ( 'NONE', ( #156 ), #158 ) ;
#154 = CIRCLE ( 'NONE', #34, 82.71184210526305900 ) ;
#155 = ORIENTED_EDGE ( 'NONE', *, *, #120, .F. ) ;
#156 = PRESENTATION_STYLE_ASSIGNMENT (( #147 ) ) ;
#157 = EDGE_CURVE ( 'NONE', #56, #108, #36, .T. ) ;
#158 = ADVANCED_BREP_SHAPE_REPRESENTATION ( '100046', ( #115, #25 ), #134 ) ;
#159 = CARTESIAN_POINT ( 'NONE',  ( 1228.948058844172200, 317.4353454169889800, -12.50000000000001100 ) ) ;
#160 = FACE_OUTER_BOUND ( 'NONE', #168, .T. ) ;
#161 = DIRECTION ( 'NONE',  ( 0.0000000000000000000, 1.000000000000000000, 0.0000000000000000000 ) ) ;
#162 = CIRCLE ( 'NONE', #52, 12.50000000000001100 ) ;
#163 = DIRECTION ( 'NONE',  ( 0.0000000000000000000, 1.000000000000000000, 0.0000000000000000000 ) ) ;
#164 = EDGE_CURVE ( 'NONE', #43, #29, #101, .T. ) ;
#165 =( NAMED_UNIT ( * ) PLANE_ANGLE_UNIT ( ) SI_UNIT ( $, .RADIAN. ) );
#166 = FACE_OUTER_BOUND ( 'NONE', #33, .T. ) ;
#167 = FILL_AREA_STYLE ('',( #19 ) ) ;
#168 = EDGE_LOOP ( 'NONE', ( #7, #5 ) ) ;
#169 = ADVANCED_FACE ( 'NONE', ( #81 ), #53, .T. ) ;
#170 = EDGE_CURVE ( 'NONE', #59, #29, #11, .T. ) ;
#171 = ORIENTED_EDGE ( 'NONE', *, *, #112, .F. ) ;
#172 = PRESENTATION_LAYER_ASSIGNMENT (  '', '', ( #153 ) ) ;
#173 = FILL_AREA_STYLE_COLOUR ( '', #122 ) ;
#174 = PRESENTATION_STYLE_ASSIGNMENT (( #23 ) ) ;
#175 = DIRECTION ( 'NONE',  ( 0.0000000000000000000, 1.224646799147353200E-016, -1.000000000000000000 ) ) ;
#176 = DIRECTION ( 'NONE',  ( -1.000000000000000000, -0.0000000000000000000, -0.0000000000000000000 ) ) ;
#177 = CLOSED_SHELL ( 'NONE', ( #169, #41, #125, #72, #87 ) ) ;
#178 =( NAMED_UNIT ( * ) PLANE_ANGLE_UNIT ( ) SI_UNIT ( $, .RADIAN. ) );
#179 = DIRECTION ( 'NONE',  ( 0.0000000000000000000, 0.0000000000000000000, 1.000000000000000000 ) ) ;
#180 = APPLICATION_PROTOCOL_DEFINITION ( 'draft international standard', 'automotive_design', 1998, #24 ) ;
#181 =( GEOMETRIC_REPRESENTATION_CONTEXT ( 3 ) GLOBAL_UNCERTAINTY_ASSIGNED_CONTEXT ( ( #27 ) ) GLOBAL_UNIT_ASSIGNED_CONTEXT ( ( #84, #165, #82 ) ) REPRESENTATION_CONTEXT ( 'NONE', 'WORKASPACE' ) );
#182 = ORIENTED_EDGE ( 'NONE', *, *, #138, .T. ) ;
#183 = PRODUCT_RELATED_PRODUCT_CATEGORY ( 'part', '', ( #28 ) ) ;
#184 = ORIENTED_EDGE ( 'NONE', *, *, #78, .F. ) ;
#185 = DIRECTION ( 'NONE',  ( -1.000000000000000000, -0.0000000000000000000, -0.0000000000000000000 ) ) ;
#186 = DIRECTION ( 'NONE',  ( 0.0000000000000000000, 0.0000000000000000000, 1.000000000000000000 ) ) ;
ENDSEC;
END-ISO-10303-21;
