ISO-10303-21;
HEADER;
FILE_DESCRIPTION (( 'STEP AP214' ),
    '1' );
FILE_NAME ('100043.STEP',
    '2019-04-29T08:12:16',
    ( '' ),
    ( '' ),
    'SwSTEP 2.0',
    'SolidWorks 2016',
    '' );
FILE_SCHEMA (( 'AUTOMOTIVE_DESIGN' ));
ENDSEC;

DATA;
#1 = EDGE_CURVE ( 'NONE', #80, #148, #163, .T. ) ;
#2 = ORIENTED_EDGE ( 'NONE', *, *, #88, .F. ) ;
#3 = ORIENTED_EDGE ( 'NONE', *, *, #184, .T. ) ;
#4 = APPLICATION_CONTEXT ( 'automotive_design' ) ;
#5 = FACE_OUTER_BOUND ( 'NONE', #7, .T. ) ;
#6 = AXIS2_PLACEMENT_3D ( 'NONE', #12, #30, #59 ) ;
#7 = EDGE_LOOP ( 'NONE', ( #71, #34 ) ) ;
#8 = EDGE_LOOP ( 'NONE', ( #67, #136, #175, #100 ) ) ;
#9 = DIRECTION ( 'NONE',  ( 0.0000000000000000000, 0.0000000000000000000, 1.000000000000000000 ) ) ;
#10 = AXIS2_PLACEMENT_3D ( 'NONE', #93, #13, #92 ) ;
#11 = DIRECTION ( 'NONE',  ( 0.0000000000000000000, 0.0000000000000000000, 1.000000000000000000 ) ) ;
#12 = CARTESIAN_POINT ( 'NONE',  ( 691.5161887344909200, 258.8551647990254300, 0.0000000000000000000 ) ) ;
#13 = DIRECTION ( 'NONE',  ( -1.000000000000000000, -0.0000000000000000000, -0.0000000000000000000 ) ) ;
#14 = DIRECTION ( 'NONE',  ( 0.0000000000000000000, 0.0000000000000000000, -1.000000000000000000 ) ) ;
#15 = AXIS2_PLACEMENT_3D ( 'NONE', #79, #133, #11 ) ;
#16 = CIRCLE ( 'NONE', #26, 12.50000000000001100 ) ;
#17 = DIRECTION ( 'NONE',  ( -0.0000000000000000000, 0.0000000000000000000, -1.000000000000000000 ) ) ;
#18 =( GEOMETRIC_REPRESENTATION_CONTEXT ( 3 ) GLOBAL_UNCERTAINTY_ASSIGNED_CONTEXT ( ( #96 ) ) GLOBAL_UNIT_ASSIGNED_CONTEXT ( ( #19, #158, #74 ) ) REPRESENTATION_CONTEXT ( 'NONE', 'WORKASPACE' ) );
#19 =( LENGTH_UNIT ( ) NAMED_UNIT ( * ) SI_UNIT ( .MILLI., .METRE. ) );
#20 = SURFACE_STYLE_USAGE ( .BOTH. , #85 ) ;
#21 = AXIS2_PLACEMENT_3D ( 'NONE', #48, #58, #140 ) ;
#22 = EDGE_LOOP ( 'NONE', ( #28, #95, #3, #32, #2 ) ) ;
#23 = EDGE_CURVE ( 'NONE', #115, #80, #99, .T. ) ;
#24 = STYLED_ITEM ( 'NONE', ( #128 ), #146 ) ;
#25 = ORIENTED_EDGE ( 'NONE', *, *, #23, .F. ) ;
#26 = AXIS2_PLACEMENT_3D ( 'NONE', #129, #172, #169 ) ;
#27 = DIRECTION ( 'NONE',  ( -1.000000000000000000, -0.0000000000000000000, -0.0000000000000000000 ) ) ;
#28 = ORIENTED_EDGE ( 'NONE', *, *, #61, .F. ) ;
#29 = DIRECTION ( 'NONE',  ( 0.0000000000000000000, 0.0000000000000000000, 1.000000000000000000 ) ) ;
#30 = DIRECTION ( 'NONE',  ( -0.0000000000000000000, 0.0000000000000000000, -1.000000000000000000 ) ) ;
#31 = FILL_AREA_STYLE ('',( #154 ) ) ;
#32 = ORIENTED_EDGE ( 'NONE', *, *, #23, .T. ) ;
#33 = CARTESIAN_POINT ( 'NONE',  ( 730.8168072911921600, 246.3551647990254900, -1.530808498934183800E-015 ) ) ;
#34 = ORIENTED_EDGE ( 'NONE', *, *, #88, .T. ) ;
#35 = APPLICATION_PROTOCOL_DEFINITION ( 'draft international standard', 'automotive_design', 1998, #4 ) ;
#36 = VECTOR ( 'NONE', #103, 1000.000000000000000 ) ;
#37 = AXIS2_PLACEMENT_3D ( 'NONE', #83, #17, #105 ) ;
#38 = CYLINDRICAL_SURFACE ( 'NONE', #15, 12.50000000000001100 ) ;
#39 = ADVANCED_FACE ( 'NONE', ( #156 ), #76, .T. ) ;
#40 = PRESENTATION_LAYER_ASSIGNMENT (  '', '', ( #120 ) ) ;
#41 = VERTEX_POINT ( 'NONE', #89 ) ;
#42 = CARTESIAN_POINT ( 'NONE',  ( 730.8168072911921600, 271.3551647990255400, 0.0000000000000000000 ) ) ;
#43 = MECHANICAL_DESIGN_GEOMETRIC_PRESENTATION_REPRESENTATION (  '', ( #24 ), #18 ) ;
#44 = CIRCLE ( 'NONE', #180, 12.50000000000001100 ) ;
#45 = DIRECTION ( 'NONE',  ( -1.000000000000000000, -0.0000000000000000000, -0.0000000000000000000 ) ) ;
#46 = EDGE_LOOP ( 'NONE', ( #173, #157, #66, #25, #168 ) ) ;
#47 =( NAMED_UNIT ( * ) SI_UNIT ( $, .STERADIAN. ) SOLID_ANGLE_UNIT ( ) );
#48 = CARTESIAN_POINT ( 'NONE',  ( 691.5161887344909200, 258.8551647990254300, 0.0000000000000000000 ) ) ;
#49 =( NAMED_UNIT ( * ) SI_UNIT ( $, .STERADIAN. ) SOLID_ANGLE_UNIT ( ) );
#50 = EDGE_CURVE ( 'NONE', #41, #110, #106, .T. ) ;
#51 = ORIENTED_EDGE ( 'NONE', *, *, #184, .F. ) ;
#52 =( GEOMETRIC_REPRESENTATION_CONTEXT ( 3 ) GLOBAL_UNCERTAINTY_ASSIGNED_CONTEXT ( ( #78 ) ) GLOBAL_UNIT_ASSIGNED_CONTEXT ( ( #57, #127, #47 ) ) REPRESENTATION_CONTEXT ( 'NONE', 'WORKASPACE' ) );
#53 =( GEOMETRIC_REPRESENTATION_CONTEXT ( 3 ) GLOBAL_UNCERTAINTY_ASSIGNED_CONTEXT ( ( #181 ) ) GLOBAL_UNIT_ASSIGNED_CONTEXT ( ( #141, #84, #49 ) ) REPRESENTATION_CONTEXT ( 'NONE', 'WORKASPACE' ) );
#54 = CARTESIAN_POINT ( 'NONE',  ( 730.8168072911921600, 258.8551647990256000, 0.0000000000000000000 ) ) ;
#55 = DIRECTION ( 'NONE',  ( 0.0000000000000000000, 1.224646799147353200E-016, -1.000000000000000000 ) ) ;
#56 = DIRECTION ( 'NONE',  ( -1.000000000000000000, -0.0000000000000000000, -0.0000000000000000000 ) ) ;
#57 =( LENGTH_UNIT ( ) NAMED_UNIT ( * ) SI_UNIT ( .MILLI., .METRE. ) );
#58 = DIRECTION ( 'NONE',  ( -0.0000000000000000000, 0.0000000000000000000, 1.000000000000000000 ) ) ;
#59 = DIRECTION ( 'NONE',  ( 0.0000000000000000000, 1.000000000000000000, 0.0000000000000000000 ) ) ;
#60 = FILL_AREA_STYLE ('',( #126 ) ) ;
#61 = EDGE_CURVE ( 'NONE', #77, #148, #178, .T. ) ;
#62 = ORIENTED_EDGE ( 'NONE', *, *, #98, .T. ) ;
#63 = PRODUCT_DEFINITION ( 'Î´Öª', '', #160, #75 ) ;
#64 = SHAPE_DEFINITION_REPRESENTATION ( #87, #146 ) ;
#65 = PRODUCT ( '100043', '100043', '', ( #143 ) ) ;
#66 = ORIENTED_EDGE ( 'NONE', *, *, #1, .F. ) ;
#67 = ORIENTED_EDGE ( 'NONE', *, *, #98, .F. ) ;
#68 = CARTESIAN_POINT ( 'NONE',  ( 728.8168072911921600, 258.8551647990256000, 0.0000000000000000000 ) ) ;
#69 = CARTESIAN_POINT ( 'NONE',  ( 730.8168072911921600, 258.8551647990256000, 0.0000000000000000000 ) ) ;
#70 = CARTESIAN_POINT ( 'NONE',  ( 730.8168072911921600, 258.8551647990256000, 0.0000000000000000000 ) ) ;
#71 = ORIENTED_EDGE ( 'NONE', *, *, #1, .T. ) ;
#72 = EDGE_CURVE ( 'NONE', #115, #134, #44, .T. ) ;
#73 = FACE_OUTER_BOUND ( 'NONE', #82, .T. ) ;
#74 =( NAMED_UNIT ( * ) SI_UNIT ( $, .STERADIAN. ) SOLID_ANGLE_UNIT ( ) );
#75 = PRODUCT_DEFINITION_CONTEXT ( 'detailed design', #130, 'design' ) ;
#76 = CYLINDRICAL_SURFACE ( 'NONE', #155, 12.50000000000001100 ) ;
#77 = VERTEX_POINT ( 'NONE', #91 ) ;
#78 = UNCERTAINTY_MEASURE_WITH_UNIT (LENGTH_MEASURE( 1.000000000000000100E-005 ), #57, 'distance_accuracy_value', 'NONE');
#79 = CARTESIAN_POINT ( 'NONE',  ( 724.0747760493022700, 258.8551647990256000, 0.0000000000000000000 ) ) ;
#80 = VERTEX_POINT ( 'NONE', #125 ) ;
#81 = SPHERICAL_SURFACE ( 'NONE', #37, 41.24061855670119300 ) ;
#82 = EDGE_LOOP ( 'NONE', ( #119, #62, #159, #51 ) ) ;
#83 = CARTESIAN_POINT ( 'NONE',  ( 691.5161887344909200, 258.8551647990254300, 0.0000000000000000000 ) ) ;
#84 =( NAMED_UNIT ( * ) PLANE_ANGLE_UNIT ( ) SI_UNIT ( $, .RADIAN. ) );
#85 = SURFACE_SIDE_STYLE ('',( #135 ) ) ;
#86 = AXIS2_PLACEMENT_3D ( 'NONE', #137, #55, #164 ) ;
#87 = PRODUCT_DEFINITION_SHAPE ( 'NONE', 'NONE',  #63 ) ;
#88 = EDGE_CURVE ( 'NONE', #148, #80, #117, .T. ) ;
#89 = CARTESIAN_POINT ( 'NONE',  ( 732.7568072911921000, 258.8551647990254300, 0.0000000000000000000 ) ) ;
#90 = PRESENTATION_STYLE_ASSIGNMENT (( #123 ) ) ;
#91 = CARTESIAN_POINT ( 'NONE',  ( 730.8168072911921600, 258.8551647990256000, -12.50000000000001100 ) ) ;
#92 = DIRECTION ( 'NONE',  ( 0.0000000000000000000, 0.0000000000000000000, 1.000000000000000000 ) ) ;
#93 = CARTESIAN_POINT ( 'NONE',  ( 728.8168072911921600, 258.8551647990256000, 0.0000000000000000000 ) ) ;
#94 = AXIS2_PLACEMENT_3D ( 'NONE', #68, #27, #121 ) ;
#95 = ORIENTED_EDGE ( 'NONE', *, *, #111, .T. ) ;
#96 = UNCERTAINTY_MEASURE_WITH_UNIT (LENGTH_MEASURE( 1.000000000000000100E-005 ), #19, 'distance_accuracy_value', 'NONE');
#97 = AXIS2_PLACEMENT_3D ( 'NONE', #54, #56, #9 ) ;
#98 = EDGE_CURVE ( 'NONE', #41, #134, #174, .T. ) ;
#99 = LINE ( 'NONE', #104, #36 ) ;
#100 = ORIENTED_EDGE ( 'NONE', *, *, #170, .F. ) ;
#101 = CLOSED_SHELL ( 'NONE', ( #39, #177, #131, #116, #147 ) ) ;
#102 = CIRCLE ( 'NONE', #97, 12.50000000000001100 ) ;
#103 = DIRECTION ( 'NONE',  ( -1.000000000000000000, -0.0000000000000000000, -0.0000000000000000000 ) ) ;
#104 = CARTESIAN_POINT ( 'NONE',  ( 724.0747760493022700, 258.8551647990256000, 12.50000000000001100 ) ) ;
#105 = DIRECTION ( 'NONE',  ( 0.0000000000000000000, 1.000000000000000000, 0.0000000000000000000 ) ) ;
#106 = CIRCLE ( 'NONE', #86, 41.24061855670119300 ) ;
#107 = AXIS2_PLACEMENT_3D ( 'NONE', #69, #109, #183 ) ;
#108 = CARTESIAN_POINT ( 'NONE',  ( 730.8168072911921600, 258.8551647990256000, 12.50000000000001100 ) ) ;
#109 = DIRECTION ( 'NONE',  ( -1.000000000000000000, -0.0000000000000000000, -0.0000000000000000000 ) ) ;
#110 = VERTEX_POINT ( 'NONE', #33 ) ;
#111 = EDGE_CURVE ( 'NONE', #77, #110, #102, .T. ) ;
#112 = DIRECTION ( 'NONE',  ( 1.000000000000000000, 0.0000000000000000000, 0.0000000000000000000 ) ) ;
#113 = DIRECTION ( 'NONE',  ( 0.0000000000000000000, 0.0000000000000000000, 1.000000000000000000 ) ) ;
#114 = APPLICATION_PROTOCOL_DEFINITION ( 'draft international standard', 'automotive_design', 1998, #130 ) ;
#115 = VERTEX_POINT ( 'NONE', #108 ) ;
#116 = ADVANCED_FACE ( 'NONE', ( #145 ), #38, .T. ) ;
#117 = CIRCLE ( 'NONE', #10, 12.50000000000001100 ) ;
#118 = AXIS2_PLACEMENT_3D ( 'NONE', #151, #113, #112 ) ;
#119 = ORIENTED_EDGE ( 'NONE', *, *, #50, .F. ) ;
#120 = STYLED_ITEM ( 'NONE', ( #90 ), #152 ) ;
#121 = DIRECTION ( 'NONE',  ( 0.0000000000000000000, 0.0000000000000000000, 1.000000000000000000 ) ) ;
#122 = CARTESIAN_POINT ( 'NONE',  ( 724.0747760493022700, 258.8551647990256000, -12.50000000000001100 ) ) ;
#123 = SURFACE_STYLE_USAGE ( .BOTH. , #167 ) ;
#124 = VECTOR ( 'NONE', #45, 1000.000000000000000 ) ;
#125 = CARTESIAN_POINT ( 'NONE',  ( 728.8168072911921600, 258.8551647990256000, 12.50000000000001100 ) ) ;
#126 = FILL_AREA_STYLE_COLOUR ( '', #179 ) ;
#127 =( NAMED_UNIT ( * ) PLANE_ANGLE_UNIT ( ) SI_UNIT ( $, .RADIAN. ) );
#128 = PRESENTATION_STYLE_ASSIGNMENT (( #20 ) ) ;
#129 = CARTESIAN_POINT ( 'NONE',  ( 730.8168072911921600, 258.8551647990256000, 0.0000000000000000000 ) ) ;
#130 = APPLICATION_CONTEXT ( 'automotive_design' ) ;
#131 = ADVANCED_FACE ( 'NONE', ( #73 ), #144, .T. ) ;
#132 = CIRCLE ( 'NONE', #107, 12.50000000000001100 ) ;
#133 = DIRECTION ( 'NONE',  ( -1.000000000000000000, -0.0000000000000000000, -0.0000000000000000000 ) ) ;
#134 = VERTEX_POINT ( 'NONE', #42 ) ;
#135 = SURFACE_STYLE_FILL_AREA ( #60 ) ;
#136 = ORIENTED_EDGE ( 'NONE', *, *, #50, .T. ) ;
#137 = CARTESIAN_POINT ( 'NONE',  ( 691.5161887344909200, 258.8551647990254300, 0.0000000000000000000 ) ) ;
#138 = SURFACE_STYLE_FILL_AREA ( #31 ) ;
#139 = DIRECTION ( 'NONE',  ( 1.000000000000000000, 0.0000000000000000000, 0.0000000000000000000 ) ) ;
#140 = DIRECTION ( 'NONE',  ( 1.000000000000000000, 0.0000000000000000000, 0.0000000000000000000 ) ) ;
#141 =( LENGTH_UNIT ( ) NAMED_UNIT ( * ) SI_UNIT ( .MILLI., .METRE. ) );
#142 = COLOUR_RGB ( '',1.000000000000000000, 1.000000000000000000, 1.000000000000000000 ) ;
#143 = PRODUCT_CONTEXT ( 'NONE', #4, 'mechanical' ) ;
#144 = SPHERICAL_SURFACE ( 'NONE', #6, 41.24061855670119300 ) ;
#145 = FACE_OUTER_BOUND ( 'NONE', #22, .T. ) ;
#146 = ADVANCED_BREP_SHAPE_REPRESENTATION ( '100043', ( #152, #118 ), #53 ) ;
#147 = ADVANCED_FACE ( 'NONE', ( #5 ), #153, .F. ) ;
#148 = VERTEX_POINT ( 'NONE', #149 ) ;
#149 = CARTESIAN_POINT ( 'NONE',  ( 728.8168072911921600, 258.8551647990256000, -12.50000000000001100 ) ) ;
#150 = PRESENTATION_LAYER_ASSIGNMENT (  '', '', ( #24 ) ) ;
#151 = CARTESIAN_POINT ( 'NONE',  ( 0.0000000000000000000, 0.0000000000000000000, 0.0000000000000000000 ) ) ;
#152 = MANIFOLD_SOLID_BREP ( 'Ðý×ª1', #101 ) ;
#153 = PLANE ( 'NONE',  #161 ) ;
#154 = FILL_AREA_STYLE_COLOUR ( '', #142 ) ;
#155 = AXIS2_PLACEMENT_3D ( 'NONE', #162, #182, #29 ) ;
#156 = FACE_OUTER_BOUND ( 'NONE', #46, .T. ) ;
#157 = ORIENTED_EDGE ( 'NONE', *, *, #61, .T. ) ;
#158 =( NAMED_UNIT ( * ) PLANE_ANGLE_UNIT ( ) SI_UNIT ( $, .RADIAN. ) );
#159 = ORIENTED_EDGE ( 'NONE', *, *, #72, .F. ) ;
#160 = PRODUCT_DEFINITION_FORMATION_WITH_SPECIFIED_SOURCE ( 'ÈÎºÎ', '', #65, .NOT_KNOWN. ) ;
#161 = AXIS2_PLACEMENT_3D ( 'NONE', #186, #139, #14 ) ;
#162 = CARTESIAN_POINT ( 'NONE',  ( 724.0747760493022700, 258.8551647990256000, 0.0000000000000000000 ) ) ;
#163 = CIRCLE ( 'NONE', #94, 12.50000000000001100 ) ;
#164 = DIRECTION ( 'NONE',  ( 0.0000000000000000000, 1.000000000000000000, 1.224646799147353200E-016 ) ) ;
#165 = PRODUCT_RELATED_PRODUCT_CATEGORY ( 'part', '', ( #65 ) ) ;
#166 = DIRECTION ( 'NONE',  ( -1.000000000000000000, -0.0000000000000000000, -0.0000000000000000000 ) ) ;
#167 = SURFACE_SIDE_STYLE ('',( #138 ) ) ;
#168 = ORIENTED_EDGE ( 'NONE', *, *, #72, .T. ) ;
#169 = DIRECTION ( 'NONE',  ( 0.0000000000000000000, 0.0000000000000000000, 1.000000000000000000 ) ) ;
#170 = EDGE_CURVE ( 'NONE', #134, #77, #132, .T. ) ;
#171 = FACE_OUTER_BOUND ( 'NONE', #8, .T. ) ;
#172 = DIRECTION ( 'NONE',  ( -1.000000000000000000, -0.0000000000000000000, -0.0000000000000000000 ) ) ;
#173 = ORIENTED_EDGE ( 'NONE', *, *, #170, .T. ) ;
#174 = CIRCLE ( 'NONE', #21, 41.24061855670113600 ) ;
#175 = ORIENTED_EDGE ( 'NONE', *, *, #111, .F. ) ;
#176 = MECHANICAL_DESIGN_GEOMETRIC_PRESENTATION_REPRESENTATION (  '', ( #120 ), #52 ) ;
#177 = ADVANCED_FACE ( 'NONE', ( #171 ), #81, .T. ) ;
#178 = LINE ( 'NONE', #122, #124 ) ;
#179 = COLOUR_RGB ( '',1.000000000000000000, 1.000000000000000000, 1.000000000000000000 ) ;
#180 = AXIS2_PLACEMENT_3D ( 'NONE', #70, #166, #185 ) ;
#181 = UNCERTAINTY_MEASURE_WITH_UNIT (LENGTH_MEASURE( 1.000000000000000100E-005 ), #141, 'distance_accuracy_value', 'NONE');
#182 = DIRECTION ( 'NONE',  ( -1.000000000000000000, -0.0000000000000000000, -0.0000000000000000000 ) ) ;
#183 = DIRECTION ( 'NONE',  ( 0.0000000000000000000, 0.0000000000000000000, 1.000000000000000000 ) ) ;
#184 = EDGE_CURVE ( 'NONE', #110, #115, #16, .T. ) ;
#185 = DIRECTION ( 'NONE',  ( 0.0000000000000000000, 0.0000000000000000000, 1.000000000000000000 ) ) ;
#186 = CARTESIAN_POINT ( 'NONE',  ( 728.8168072911921600, 258.8551647990256000, 0.0000000000000000000 ) ) ;
ENDSEC;
END-ISO-10303-21;
