ISO-10303-21;
HEADER;
FILE_DESCRIPTION (( 'STEP AP203' ),
    '1' );
FILE_NAME ('416001.STEP',
    '2019-08-21T06:13:52',
    ( '' ),
    ( '' ),
    'SwSTEP 2.0',
    'SolidWorks 2016',
    '' );
FILE_SCHEMA (( 'CONFIG_CONTROL_DESIGN' ));
ENDSEC;

DATA;
#1 = FACE_OUTER_BOUND ( 'NONE', #217, .T. ) ;
#2 = DIRECTION ( 'NONE',  ( -0.0000000000000000000, -0.0000000000000000000, -1.000000000000000000 ) ) ;
#3 = CARTESIAN_POINT ( 'NONE',  ( 0.0000000000000000000, 0.0000000000000000000, 2.000000000000000000 ) ) ;
#4 = PERSON_AND_ORGANIZATION_ROLE ( 'design_owner' ) ;
#5 = PERSON_AND_ORGANIZATION ( #86, #194 ) ;
#6 = CARTESIAN_POINT ( 'NONE',  ( 4.999999999999997300, 6.123233995736763300E-016, 0.0000000000000000000 ) ) ;
#7 = APPLICATION_CONTEXT ( 'configuration controlled 3d designs of mechanical parts and assemblies' ) ;
#8 = DIRECTION ( 'NONE',  ( 0.0000000000000000000, 0.0000000000000000000, 1.000000000000000000 ) ) ;
#9 = ORIENTED_EDGE ( 'NONE', *, *, #53, .F. ) ;
#10 = APPROVAL_ROLE ( '' ) ;
#11 = CC_DESIGN_PERSON_AND_ORGANIZATION_ASSIGNMENT ( #24, #46, ( #60 ) ) ;
#12 = CALENDAR_DATE ( 2019, 21, 8 ) ;
#13 = ORIENTED_EDGE ( 'NONE', *, *, #131, .T. ) ;
#14 = CC_DESIGN_APPROVAL ( #224, ( #146 ) ) ;
#15 = ADVANCED_FACE ( 'NONE', ( #157 ), #108, .F. ) ;
#16 = FACE_OUTER_BOUND ( 'NONE', #248, .T. ) ;
#17 = APPROVAL ( #94, 'Î´Ö¸¶¨' ) ;
#18 = APPROVAL_DATE_TIME ( #74, #224 ) ;
#19 = EDGE_CURVE ( 'NONE', #130, #222, #173, .T. ) ;
#20 = LINE ( 'NONE', #178, #114 ) ;
#21 = PERSON_AND_ORGANIZATION ( #86, #194 ) ;
#22 = CC_DESIGN_APPROVAL ( #137, ( #63 ) ) ;
#23 = CC_DESIGN_APPROVAL ( #95, ( #231 ) ) ;
#24 = PERSON_AND_ORGANIZATION ( #86, #194 ) ;
#25 = CARTESIAN_POINT ( 'NONE',  ( -4.999999999999997300, 0.0000000000000000000, 2.000000000000000000 ) ) ;
#26 = CALENDAR_DATE ( 2019, 21, 8 ) ;
#27 = CC_DESIGN_PERSON_AND_ORGANIZATION_ASSIGNMENT ( #33, #164, ( #191 ) ) ;
#28 = DIRECTION ( 'NONE',  ( 0.0000000000000000000, 0.0000000000000000000, 1.000000000000000000 ) ) ;
#29 = PERSON_AND_ORGANIZATION_ROLE ( 'creator' ) ;
#30 = PERSON_AND_ORGANIZATION_ROLE ( 'design_supplier' ) ;
#31 = APPROVAL_ROLE ( '' ) ;
#32 = AXIS2_PLACEMENT_3D ( 'NONE', #87, #57, #182 ) ;
#33 = PERSON_AND_ORGANIZATION ( #86, #194 ) ;
#34 = VERTEX_POINT ( 'NONE', #6 ) ;
#35 = CC_DESIGN_PERSON_AND_ORGANIZATION_ASSIGNMENT ( #96, #93, ( #231 ) ) ;
#36 = ADVANCED_FACE ( 'NONE', ( #16 ), #65, .T. ) ;
#37 = CC_DESIGN_PERSON_AND_ORGANIZATION_ASSIGNMENT ( #175, #242, ( #181 ) ) ;
#38 = UNCERTAINTY_MEASURE_WITH_UNIT (LENGTH_MEASURE( 1.000000000000000100E-005 ), #197, 'distance_accuracy_value', 'NONE');
#39 = PERSON_AND_ORGANIZATION ( #86, #194 ) ;
#40 = EDGE_LOOP ( 'NONE', ( #9, #143, #138, #118 ) ) ;
#41 = DATE_AND_TIME ( #235, #159 ) ;
#42 = DESIGN_CONTEXT ( 'detailed design', #7, 'design' ) ;
#43 = APPLICATION_CONTEXT ( 'configuration controlled 3d designs of mechanical parts and assemblies' ) ;
#44 = DATE_AND_TIME ( #226, #158 ) ;
#45 =( NAMED_UNIT ( * ) PLANE_ANGLE_UNIT ( ) SI_UNIT ( $, .RADIAN. ) );
#46 = PERSON_AND_ORGANIZATION_ROLE ( 'design_owner' ) ;
#47 = APPROVAL_STATUS ( 'not_yet_approved' ) ;
#48 = CYLINDRICAL_SURFACE ( 'NONE', #253, 4.999999999999997300 ) ;
#49 = APPLICATION_PROTOCOL_DEFINITION ( 'international standard', 'config_control_design', 1994, #7 ) ;
#50 = CALENDAR_DATE ( 2019, 21, 8 ) ;
#51 = CC_DESIGN_DATE_AND_TIME_ASSIGNMENT ( #44, #238, ( #155 ) ) ;
#52 = ADVANCED_BREP_SHAPE_REPRESENTATION ( '416001', ( #99, #134 ), #174 ) ;
#53 = EDGE_CURVE ( 'NONE', #130, #34, #20, .T. ) ;
#54 = CIRCLE ( 'NONE', #208, 4.999999999999997300 ) ;
#55 = CC_DESIGN_PERSON_AND_ORGANIZATION_ASSIGNMENT ( #64, #67, ( #63 ) ) ;
#56 = DATE_AND_TIME ( #26, #169 ) ;
#57 = DIRECTION ( 'NONE',  ( 0.0000000000000000000, 0.0000000000000000000, 1.000000000000000000 ) ) ;
#58 = CARTESIAN_POINT ( 'NONE',  ( 0.0000000000000000000, 0.0000000000000000000, 2.000000000000000000 ) ) ;
#59 = CARTESIAN_POINT ( 'NONE',  ( -4.999999999999997300, 0.0000000000000000000, 0.0000000000000000000 ) ) ;
#60 = PRODUCT ( '416001', '416001', '', ( #163 ) ) ;
#61 = DIRECTION ( 'NONE',  ( 1.000000000000000000, 0.0000000000000000000, 0.0000000000000000000 ) ) ;
#62 = PERSON_AND_ORGANIZATION ( #86, #194 ) ;
#63 = PRODUCT_DEFINITION ( 'Î´Öª', '', #181, #229 ) ;
#64 = PERSON_AND_ORGANIZATION ( #86, #194 ) ;
#65 = PLANE ( 'NONE',  #120 ) ;
#66 = DIRECTION ( 'NONE',  ( -0.0000000000000000000, -0.0000000000000000000, -1.000000000000000000 ) ) ;
#67 = PERSON_AND_ORGANIZATION_ROLE ( 'creator' ) ;
#68 = DIRECTION ( 'NONE',  ( -1.000000000000000000, 0.0000000000000000000, 0.0000000000000000000 ) ) ;
#69 = DATE_TIME_ROLE ( 'creation_date' ) ;
#70 = APPROVAL_DATE_TIME ( #170, #128 ) ;
#71 = APPROVAL_ROLE ( '' ) ;
#72 = PERSON_AND_ORGANIZATION ( #86, #194 ) ;
#73 = APPLICATION_PROTOCOL_DEFINITION ( 'international standard', 'config_control_design', 1994, #160 ) ;
#74 = DATE_AND_TIME ( #12, #119 ) ;
#75 = AXIS2_PLACEMENT_3D ( 'NONE', #241, #8, #110 ) ;
#76 = CLOSED_SHELL ( 'NONE', ( #152, #246, #36, #15 ) ) ;
#77 = DATE_AND_TIME ( #180, #203 ) ;
#78 = LOCAL_TIME ( 14, 13, 52.00000000000000000, #122 ) ;
#79 = APPROVAL_PERSON_ORGANIZATION ( #72, #95, #31 ) ;
#80 = DIRECTION ( 'NONE',  ( 0.0000000000000000000, 0.0000000000000000000, 1.000000000000000000 ) ) ;
#81 = CARTESIAN_POINT ( 'NONE',  ( 0.0000000000000000000, 0.0000000000000000000, 2.000000000000000000 ) ) ;
#82 = CIRCLE ( 'NONE', #83, 4.999999999999997300 ) ;
#83 = AXIS2_PLACEMENT_3D ( 'NONE', #58, #28, #161 ) ;
#84 = PERSON_AND_ORGANIZATION ( #86, #194 ) ;
#85 = DATE_AND_TIME ( #171, #252 ) ;
#86 = PERSON ( 'Î´Ö¸¶¨', 'Î´Ö¸¶¨', 'Î´Ö¸¶¨', ('Î´Ö¸¶¨'), ('Î´Ö¸¶¨'), ('Î´Ö¸¶¨') ) ;
#87 = CARTESIAN_POINT ( 'NONE',  ( 0.0000000000000000000, 0.0000000000000000000, 0.0000000000000000000 ) ) ;
#88 = PERSON_AND_ORGANIZATION_ROLE ( 'design_supplier' ) ;
#89 = APPROVAL_ROLE ( '' ) ;
#90 =( NAMED_UNIT ( * ) SI_UNIT ( $, .STERADIAN. ) SOLID_ANGLE_UNIT ( ) );
#91 = APPLICATION_PROTOCOL_DEFINITION ( 'international standard', 'config_control_design', 1994, #43 ) ;
#92 = DIRECTION ( 'NONE',  ( 0.0000000000000000000, 0.0000000000000000000, 1.000000000000000000 ) ) ;
#93 = PERSON_AND_ORGANIZATION_ROLE ( 'creator' ) ;
#94 = APPROVAL_STATUS ( 'not_yet_approved' ) ;
#95 = APPROVAL ( #185, 'Î´Ö¸¶¨' ) ;
#96 = PERSON_AND_ORGANIZATION ( #86, #194 ) ;
#97 = CC_DESIGN_DATE_AND_TIME_ASSIGNMENT ( #41, #214, ( #191 ) ) ;
#98 = APPROVAL_PERSON_ORGANIZATION ( #5, #224, #71 ) ;
#99 = MANIFOLD_SOLID_BREP ( 'Í¹Ì¨-À­Éì1', #76 ) ;
#100 = LOCAL_TIME ( 14, 13, 52.00000000000000000, #149 ) ;
#101 = LINE ( 'NONE', #25, #148 ) ;
#102 = DIRECTION ( 'NONE',  ( 1.000000000000000000, 0.0000000000000000000, 0.0000000000000000000 ) ) ;
#103 = APPROVAL_PERSON_ORGANIZATION ( #176, #107, #10 ) ;
#104 = CC_DESIGN_PERSON_AND_ORGANIZATION_ASSIGNMENT ( #21, #112, ( #155 ) ) ;
#105 = DIRECTION ( 'NONE',  ( 0.0000000000000000000, 0.0000000000000000000, 1.000000000000000000 ) ) ;
#106 = PRODUCT ( '416001', '416001', '', ( #219 ) ) ;
#107 = APPROVAL ( #47, 'Î´Ö¸¶¨' ) ;
#108 = PLANE ( 'NONE',  #32 ) ;
#109 = CALENDAR_DATE ( 2019, 21, 8 ) ;
#110 = DIRECTION ( 'NONE',  ( 1.000000000000000000, 0.0000000000000000000, 0.0000000000000000000 ) ) ;
#111 = DATE_TIME_ROLE ( 'creation_date' ) ;
#112 = PERSON_AND_ORGANIZATION_ROLE ( 'classification_officer' ) ;
#113 = CYLINDRICAL_SURFACE ( 'NONE', #249, 4.999999999999997300 ) ;
#114 = VECTOR ( 'NONE', #121, 1000.000000000000000 ) ;
#115 = APPROVAL_PERSON_ORGANIZATION ( #188, #137, #127 ) ;
#116 = ORIENTED_EDGE ( 'NONE', *, *, #215, .F. ) ;
#117 = APPROVAL_DATE_TIME ( #77, #137 ) ;
#118 = ORIENTED_EDGE ( 'NONE', *, *, #142, .T. ) ;
#119 = LOCAL_TIME ( 14, 13, 52.00000000000000000, #123 ) ;
#120 = AXIS2_PLACEMENT_3D ( 'NONE', #212, #80, #239 ) ;
#121 = DIRECTION ( 'NONE',  ( -0.0000000000000000000, -0.0000000000000000000, -1.000000000000000000 ) ) ;
#122 = COORDINATED_UNIVERSAL_TIME_OFFSET ( 8, 0, .AHEAD. ) ;
#123 = COORDINATED_UNIVERSAL_TIME_OFFSET ( 8, 0, .AHEAD. ) ;
#124 = APPROVAL_ROLE ( '' ) ;
#125 = CC_DESIGN_APPROVAL ( #17, ( #155 ) ) ;
#126 = APPROVAL_PERSON_ORGANIZATION ( #62, #17, #124 ) ;
#127 = APPROVAL_ROLE ( '' ) ;
#128 = APPROVAL ( #136, 'Î´Ö¸¶¨' ) ;
#129 = CC_DESIGN_APPROVAL ( #107, ( #191 ) ) ;
#130 = VERTEX_POINT ( 'NONE', #139 ) ;
#131 = EDGE_CURVE ( 'NONE', #222, #130, #82, .T. ) ;
#132 = COORDINATED_UNIVERSAL_TIME_OFFSET ( 8, 0, .AHEAD. ) ;
#133 = EDGE_LOOP ( 'NONE', ( #232, #116 ) ) ;
#134 = AXIS2_PLACEMENT_3D ( 'NONE', #162, #92, #218 ) ;
#135 = DIRECTION ( 'NONE',  ( -1.000000000000000000, 0.0000000000000000000, 0.0000000000000000000 ) ) ;
#136 = APPROVAL_STATUS ( 'not_yet_approved' ) ;
#137 = APPROVAL ( #186, 'Î´Ö¸¶¨' ) ;
#138 = ORIENTED_EDGE ( 'NONE', *, *, #233, .T. ) ;
#139 = CARTESIAN_POINT ( 'NONE',  ( 4.999999999999997300, 6.123233995736763300E-016, 2.000000000000000000 ) ) ;
#140 = APPLICATION_CONTEXT ( 'configuration controlled 3d designs of mechanical parts and assemblies' ) ;
#141 = COORDINATED_UNIVERSAL_TIME_OFFSET ( 8, 0, .AHEAD. ) ;
#142 = EDGE_CURVE ( 'NONE', #204, #34, #251, .T. ) ;
#143 = ORIENTED_EDGE ( 'NONE', *, *, #131, .F. ) ;
#144 = PRODUCT_RELATED_PRODUCT_CATEGORY ( 'detail', '', ( #106 ) ) ;
#145 = FACE_OUTER_BOUND ( 'NONE', #40, .T. ) ;
#146 = PRODUCT_DEFINITION_FORMATION_WITH_SPECIFIED_SOURCE ( 'ÈÎºÎ', '', #60, .NOT_KNOWN. ) ;
#147 = APPROVAL_DATE_TIME ( #56, #95 ) ;
#148 = VECTOR ( 'NONE', #66, 1000.000000000000000 ) ;
#149 = COORDINATED_UNIVERSAL_TIME_OFFSET ( 8, 0, .AHEAD. ) ;
#150 = PRODUCT_RELATED_PRODUCT_CATEGORY ( 'detail', '', ( #60 ) ) ;
#151 = LOCAL_TIME ( 14, 13, 52.00000000000000000, #205 ) ;
#152 = ADVANCED_FACE ( 'NONE', ( #1 ), #48, .T. ) ;
#153 = ORIENTED_EDGE ( 'NONE', *, *, #19, .T. ) ;
#154 = PERSON_AND_ORGANIZATION ( #86, #194 ) ;
#155 = SECURITY_CLASSIFICATION ( '', '', #199 ) ;
#156 = AXIS2_PLACEMENT_3D ( 'NONE', #209, #105, #102 ) ;
#157 = FACE_OUTER_BOUND ( 'NONE', #133, .T. ) ;
#158 = LOCAL_TIME ( 14, 13, 52.00000000000000000, #168 ) ;
#159 = LOCAL_TIME ( 14, 13, 52.00000000000000000, #230 ) ;
#160 = APPLICATION_CONTEXT ( 'configuration controlled 3d designs of mechanical parts and assemblies' ) ;
#161 = DIRECTION ( 'NONE',  ( 1.000000000000000000, 0.0000000000000000000, 0.0000000000000000000 ) ) ;
#162 = CARTESIAN_POINT ( 'NONE',  ( 0.0000000000000000000, 0.0000000000000000000, 0.0000000000000000000 ) ) ;
#163 = MECHANICAL_CONTEXT ( 'NONE', #160, 'mechanical' ) ;
#164 = PERSON_AND_ORGANIZATION_ROLE ( 'classification_officer' ) ;
#165 = DATE_AND_TIME ( #109, #151 ) ;
#166 = CC_DESIGN_PERSON_AND_ORGANIZATION_ASSIGNMENT ( #207, #29, ( #146 ) ) ;
#167 = PRODUCT_DEFINITION_SHAPE ( 'NONE', 'NONE',  #231 ) ;
#168 = COORDINATED_UNIVERSAL_TIME_OFFSET ( 8, 0, .AHEAD. ) ;
#169 = LOCAL_TIME ( 14, 13, 52.00000000000000000, #220 ) ;
#170 = DATE_AND_TIME ( #223, #100 ) ;
#171 = CALENDAR_DATE ( 2019, 21, 8 ) ;
#172 = CC_DESIGN_APPROVAL ( #128, ( #181 ) ) ;
#173 = CIRCLE ( 'NONE', #250, 4.999999999999997300 ) ;
#174 =( GEOMETRIC_REPRESENTATION_CONTEXT ( 3 ) GLOBAL_UNCERTAINTY_ASSIGNED_CONTEXT ( ( #38 ) ) GLOBAL_UNIT_ASSIGNED_CONTEXT ( ( #197, #45, #90 ) ) REPRESENTATION_CONTEXT ( 'NONE', 'WORKASPACE' ) );
#175 = PERSON_AND_ORGANIZATION ( #86, #194 ) ;
#176 = PERSON_AND_ORGANIZATION ( #86, #194 ) ;
#177 = CC_DESIGN_PERSON_AND_ORGANIZATION_ASSIGNMENT ( #154, #88, ( #146 ) ) ;
#178 = CARTESIAN_POINT ( 'NONE',  ( 4.999999999999997300, 6.123233995736763300E-016, 2.000000000000000000 ) ) ;
#179 = ORIENTED_EDGE ( 'NONE', *, *, #215, .T. ) ;
#180 = CALENDAR_DATE ( 2019, 21, 8 ) ;
#181 = PRODUCT_DEFINITION_FORMATION_WITH_SPECIFIED_SOURCE ( 'ÈÎºÎ', '', #106, .NOT_KNOWN. ) ;
#182 = DIRECTION ( 'NONE',  ( 1.000000000000000000, 0.0000000000000000000, -0.0000000000000000000 ) ) ;
#183 = DIRECTION ( 'NONE',  ( 1.000000000000000000, 0.0000000000000000000, 0.0000000000000000000 ) ) ;
#184 = DIRECTION ( 'NONE',  ( 0.0000000000000000000, 0.0000000000000000000, 1.000000000000000000 ) ) ;
#185 = APPROVAL_STATUS ( 'not_yet_approved' ) ;
#186 = APPROVAL_STATUS ( 'not_yet_approved' ) ;
#187 = APPROVAL_DATE_TIME ( #202, #17 ) ;
#188 = PERSON_AND_ORGANIZATION ( #86, #194 ) ;
#189 = CC_DESIGN_PERSON_AND_ORGANIZATION_ASSIGNMENT ( #39, #4, ( #106 ) ) ;
#190 = ORIENTED_EDGE ( 'NONE', *, *, #53, .T. ) ;
#191 = SECURITY_CLASSIFICATION ( '', '', #198 ) ;
#192 = ORIENTED_EDGE ( 'NONE', *, *, #233, .F. ) ;
#193 = DIRECTION ( 'NONE',  ( 0.0000000000000000000, 0.0000000000000000000, 1.000000000000000000 ) ) ;
#194 = ORGANIZATION ( 'Î´Ö¸¶¨', 'Î´Ö¸¶¨', '' ) ;
#195 = CARTESIAN_POINT ( 'NONE',  ( 0.0000000000000000000, 0.0000000000000000000, 2.000000000000000000 ) ) ;
#196 = CC_DESIGN_DATE_AND_TIME_ASSIGNMENT ( #85, #69, ( #231 ) ) ;
#197 =( LENGTH_UNIT ( ) NAMED_UNIT ( * ) SI_UNIT ( .MILLI., .METRE. ) );
#198 = SECURITY_CLASSIFICATION_LEVEL ( 'unclassified' ) ;
#199 = SECURITY_CLASSIFICATION_LEVEL ( 'unclassified' ) ;
#200 = SHAPE_DEFINITION_REPRESENTATION ( #244, #52 ) ;
#201 = CC_DESIGN_SECURITY_CLASSIFICATION ( #155, ( #181 ) ) ;
#202 = DATE_AND_TIME ( #234, #78 ) ;
#203 = LOCAL_TIME ( 14, 13, 52.00000000000000000, #132 ) ;
#204 = VERTEX_POINT ( 'NONE', #59 ) ;
#205 = COORDINATED_UNIVERSAL_TIME_OFFSET ( 8, 0, .AHEAD. ) ;
#206 = PERSON_AND_ORGANIZATION ( #86, #194 ) ;
#207 = PERSON_AND_ORGANIZATION ( #86, #194 ) ;
#208 = AXIS2_PLACEMENT_3D ( 'NONE', #237, #184, #183 ) ;
#209 = CARTESIAN_POINT ( 'NONE',  ( 0.0000000000000000000, 0.0000000000000000000, 0.0000000000000000000 ) ) ;
#210 = CARTESIAN_POINT ( 'NONE',  ( -4.999999999999997300, 0.0000000000000000000, 2.000000000000000000 ) ) ;
#211 = CC_DESIGN_DATE_AND_TIME_ASSIGNMENT ( #165, #111, ( #63 ) ) ;
#212 = CARTESIAN_POINT ( 'NONE',  ( 0.0000000000000000000, 0.0000000000000000000, 2.000000000000000000 ) ) ;
#213 = COORDINATED_UNIVERSAL_TIME_OFFSET ( 8, 0, .AHEAD. ) ;
#214 = DATE_TIME_ROLE ( 'classification_date' ) ;
#215 = EDGE_CURVE ( 'NONE', #34, #204, #54, .T. ) ;
#216 = APPLICATION_PROTOCOL_DEFINITION ( 'international standard', 'config_control_design', 1994, #140 ) ;
#217 = EDGE_LOOP ( 'NONE', ( #240, #190, #179, #192 ) ) ;
#218 = DIRECTION ( 'NONE',  ( 1.000000000000000000, 0.0000000000000000000, 0.0000000000000000000 ) ) ;
#219 = MECHANICAL_CONTEXT ( 'NONE', #140, 'mechanical' ) ;
#220 = COORDINATED_UNIVERSAL_TIME_OFFSET ( 8, 0, .AHEAD. ) ;
#221 = APPROVAL_STATUS ( 'not_yet_approved' ) ;
#222 = VERTEX_POINT ( 'NONE', #210 ) ;
#223 = CALENDAR_DATE ( 2019, 21, 8 ) ;
#224 = APPROVAL ( #221, 'Î´Ö¸¶¨' ) ;
#225 = APPROVAL_DATE_TIME ( #245, #107 ) ;
#226 = CALENDAR_DATE ( 2019, 21, 8 ) ;
#227 = APPROVAL_PERSON_ORGANIZATION ( #84, #128, #89 ) ;
#228 = LOCAL_TIME ( 14, 13, 52.00000000000000000, #213 ) ;
#229 = DESIGN_CONTEXT ( 'detailed design', #43, 'design' ) ;
#230 = COORDINATED_UNIVERSAL_TIME_OFFSET ( 8, 0, .AHEAD. ) ;
#231 = PRODUCT_DEFINITION ( 'Î´Öª', '', #146, #42 ) ;
#232 = ORIENTED_EDGE ( 'NONE', *, *, #142, .F. ) ;
#233 = EDGE_CURVE ( 'NONE', #222, #204, #101, .T. ) ;
#234 = CALENDAR_DATE ( 2019, 21, 8 ) ;
#235 = CALENDAR_DATE ( 2019, 21, 8 ) ;
#236 = DIRECTION ( 'NONE',  ( -0.0000000000000000000, -0.0000000000000000000, -1.000000000000000000 ) ) ;
#237 = CARTESIAN_POINT ( 'NONE',  ( 0.0000000000000000000, 0.0000000000000000000, 0.0000000000000000000 ) ) ;
#238 = DATE_TIME_ROLE ( 'classification_date' ) ;
#239 = DIRECTION ( 'NONE',  ( 1.000000000000000000, 0.0000000000000000000, -0.0000000000000000000 ) ) ;
#240 = ORIENTED_EDGE ( 'NONE', *, *, #19, .F. ) ;
#241 = CARTESIAN_POINT ( 'NONE',  ( 0.0000000000000000000, 0.0000000000000000000, 0.0000000000000000000 ) ) ;
#242 = PERSON_AND_ORGANIZATION_ROLE ( 'creator' ) ;
#243 = CC_DESIGN_SECURITY_CLASSIFICATION ( #191, ( #146 ) ) ;
#244 = PRODUCT_DEFINITION_SHAPE ( 'NONE', 'NONE',  #63 ) ;
#245 = DATE_AND_TIME ( #50, #228 ) ;
#246 = ADVANCED_FACE ( 'NONE', ( #145 ), #113, .T. ) ;
#247 = CC_DESIGN_PERSON_AND_ORGANIZATION_ASSIGNMENT ( #206, #30, ( #181 ) ) ;
#248 = EDGE_LOOP ( 'NONE', ( #13, #153 ) ) ;
#249 = AXIS2_PLACEMENT_3D ( 'NONE', #195, #236, #68 ) ;
#250 = AXIS2_PLACEMENT_3D ( 'NONE', #3, #193, #61 ) ;
#251 = CIRCLE ( 'NONE', #156, 4.999999999999997300 ) ;
#252 = LOCAL_TIME ( 14, 13, 52.00000000000000000, #141 ) ;
#253 = AXIS2_PLACEMENT_3D ( 'NONE', #81, #2, #135 ) ;
ENDSEC;
END-ISO-10303-21;
