ISO-10303-21;
HEADER;
FILE_DESCRIPTION (( 'STEP AP214' ),
    '1' );
FILE_NAME ('432533.STEP',
    '2019-08-28T03:35:59',
    ( 'user' ),
    ( 'Î¢ÈíÖÐ¹ú' ),
    'SwSTEP 2.0',
    'SolidWorks 2016',
    '' );
FILE_SCHEMA (( 'AUTOMOTIVE_DESIGN' ));
ENDSEC;

DATA;
#1 = MANIFOLD_SOLID_BREP ( 'Ðý×ª1', #46 ) ;
#2 = DIRECTION ( 'NONE',  ( 0.0000000000000000000, 0.0000000000000000000, 1.000000000000000000 ) ) ;
#3 = PRODUCT_RELATED_PRODUCT_CATEGORY ( 'part', '', ( #87 ) ) ;
#4 = FACE_OUTER_BOUND ( 'NONE', #59, .T. ) ;
#5 =( NAMED_UNIT ( * ) PLANE_ANGLE_UNIT ( ) SI_UNIT ( $, .RADIAN. ) );
#6 = CIRCLE ( 'NONE', #95, 1000.000000000000000 ) ;
#7 = ORIENTED_EDGE ( 'NONE', *, *, #61, .T. ) ;
#8 = FACE_OUTER_BOUND ( 'NONE', #16, .T. ) ;
#9 = DIRECTION ( 'NONE',  ( -0.0000000000000000000, 1.000000000000000000, 1.224646799147353200E-016 ) ) ;
#10 = AXIS2_PLACEMENT_3D ( 'NONE', #28, #52, #41 ) ;
#11 = CARTESIAN_POINT ( 'NONE',  ( 1009.209999999999900, 0.0000000000000000000, 0.0000000000000000000 ) ) ;
#12 = SPHERICAL_SURFACE ( 'NONE', #94, 1000.000000000000000 ) ;
#13 = DIRECTION ( 'NONE',  ( -1.000000000000000000, -0.0000000000000000000, -0.0000000000000000000 ) ) ;
#14 =( GEOMETRIC_REPRESENTATION_CONTEXT ( 3 ) GLOBAL_UNCERTAINTY_ASSIGNED_CONTEXT ( ( #124 ) ) GLOBAL_UNIT_ASSIGNED_CONTEXT ( ( #80, #5, #158 ) ) REPRESENTATION_CONTEXT ( 'NONE', 'WORKASPACE' ) );
#15 = DIRECTION ( 'NONE',  ( 1.000000000000000000, 0.0000000000000000000, 0.0000000000000000000 ) ) ;
#16 = EDGE_LOOP ( 'NONE', ( #19, #27, #89, #147 ) ) ;
#17 = DIRECTION ( 'NONE',  ( -1.000000000000000000, -0.0000000000000000000, -0.0000000000000000000 ) ) ;
#18 = AXIS2_PLACEMENT_3D ( 'NONE', #133, #25, #2 ) ;
#19 = ORIENTED_EDGE ( 'NONE', *, *, #77, .F. ) ;
#20 = VERTEX_POINT ( 'NONE', #114 ) ;
#21 = DIRECTION ( 'NONE',  ( 0.0000000000000000000, 0.0000000000000000000, 1.000000000000000000 ) ) ;
#22 = ORIENTED_EDGE ( 'NONE', *, *, #137, .T. ) ;
#23 = EDGE_LOOP ( 'NONE', ( #82, #22 ) ) ;
#24 = ORIENTED_EDGE ( 'NONE', *, *, #91, .T. ) ;
#25 = DIRECTION ( 'NONE',  ( -1.000000000000000000, -0.0000000000000000000, -0.0000000000000000000 ) ) ;
#26 = COLOUR_RGB ( '',1.000000000000000000, 1.000000000000000000, 1.000000000000000000 ) ;
#27 = ORIENTED_EDGE ( 'NONE', *, *, #65, .T. ) ;
#28 = CARTESIAN_POINT ( 'NONE',  ( 0.0000000000000000000, 0.0000000000000000000, 0.0000000000000000000 ) ) ;
#29 = CARTESIAN_POINT ( 'NONE',  ( 9.532632045718415300, 3.110602869834310400E-015, -25.40000000000026900 ) ) ;
#30 = AXIS2_PLACEMENT_3D ( 'NONE', #111, #38, #140 ) ;
#31 = APPLICATION_CONTEXT ( 'automotive_design' ) ;
#32 = DIRECTION ( 'NONE',  ( -1.000000000000000000, -0.0000000000000000000, -0.0000000000000000000 ) ) ;
#33 = EDGE_LOOP ( 'NONE', ( #117, #151, #51 ) ) ;
#34 = EDGE_CURVE ( 'NONE', #20, #39, #49, .T. ) ;
#35 = SURFACE_STYLE_FILL_AREA ( #136 ) ;
#36 = STYLED_ITEM ( 'NONE', ( #153 ), #1 ) ;
#37 = CARTESIAN_POINT ( 'NONE',  ( 0.0000000000000000000, 3.110602869834270200E-015, -25.39999999999994200 ) ) ;
#38 = DIRECTION ( 'NONE',  ( -1.000000000000000000, -0.0000000000000000000, -0.0000000000000000000 ) ) ;
#39 = VERTEX_POINT ( 'NONE', #53 ) ;
#40 = PRODUCT_DEFINITION_FORMATION_WITH_SPECIFIED_SOURCE ( 'ÈÎºÎ', '', #87, .NOT_KNOWN. ) ;
#41 = DIRECTION ( 'NONE',  ( 1.000000000000000000, 0.0000000000000000000, 0.0000000000000000000 ) ) ;
#42 =( NAMED_UNIT ( * ) SI_UNIT ( $, .STERADIAN. ) SOLID_ANGLE_UNIT ( ) );
#43 =( GEOMETRIC_REPRESENTATION_CONTEXT ( 3 ) GLOBAL_UNCERTAINTY_ASSIGNED_CONTEXT ( ( #122 ) ) GLOBAL_UNIT_ASSIGNED_CONTEXT ( ( #129, #45, #54 ) ) REPRESENTATION_CONTEXT ( 'NONE', 'WORKASPACE' ) );
#44 = APPLICATION_CONTEXT ( 'automotive_design' ) ;
#45 =( NAMED_UNIT ( * ) PLANE_ANGLE_UNIT ( ) SI_UNIT ( $, .RADIAN. ) );
#46 = CLOSED_SHELL ( 'NONE', ( #60, #146, #81, #164, #92 ) ) ;
#47 = FILL_AREA_STYLE ('',( #105 ) ) ;
#48 = PLANE ( 'NONE',  #101 ) ;
#49 = CIRCLE ( 'NONE', #141, 25.39999999999999900 ) ;
#50 = CYLINDRICAL_SURFACE ( 'NONE', #30, 25.39999999999994200 ) ;
#51 = ORIENTED_EDGE ( 'NONE', *, *, #91, .F. ) ;
#52 = DIRECTION ( 'NONE',  ( 0.0000000000000000000, 0.0000000000000000000, 1.000000000000000000 ) ) ;
#53 = CARTESIAN_POINT ( 'NONE',  ( 0.0000000000000000000, 3.110602869834276900E-015, -25.39999999999999900 ) ) ;
#54 =( NAMED_UNIT ( * ) SI_UNIT ( $, .STERADIAN. ) SOLID_ANGLE_UNIT ( ) );
#55 = VERTEX_POINT ( 'NONE', #29 ) ;
#56 = EDGE_LOOP ( 'NONE', ( #119, #66, #24 ) ) ;
#57 = DIRECTION ( 'NONE',  ( 0.0000000000000000000, 0.0000000000000000000, 1.000000000000000000 ) ) ;
#58 = DIRECTION ( 'NONE',  ( -1.000000000000000000, -0.0000000000000000000, -0.0000000000000000000 ) ) ;
#59 = EDGE_LOOP ( 'NONE', ( #7, #138, #109, #155 ) ) ;
#60 = ADVANCED_FACE ( 'NONE', ( #4 ), #50, .T. ) ;
#61 = EDGE_CURVE ( 'NONE', #156, #55, #98, .T. ) ;
#62 =( NAMED_UNIT ( * ) PLANE_ANGLE_UNIT ( ) SI_UNIT ( $, .RADIAN. ) );
#63 = PRESENTATION_LAYER_ASSIGNMENT (  '', '', ( #112 ) ) ;
#64 = CARTESIAN_POINT ( 'NONE',  ( 9.532632045718415300, 0.0000000000000000000, 25.40000000000026900 ) ) ;
#65 = EDGE_CURVE ( 'NONE', #55, #156, #110, .T. ) ;
#66 = ORIENTED_EDGE ( 'NONE', *, *, #61, .F. ) ;
#67 = DIRECTION ( 'NONE',  ( 0.0000000000000000000, 0.0000000000000000000, 1.000000000000000000 ) ) ;
#68 = CARTESIAN_POINT ( 'NONE',  ( 0.0000000000000000000, 0.0000000000000000000, 0.0000000000000000000 ) ) ;
#69 = AXIS2_PLACEMENT_3D ( 'NONE', #96, #9, #102 ) ;
#70 = DIRECTION ( 'NONE',  ( -1.000000000000000000, -0.0000000000000000000, -0.0000000000000000000 ) ) ;
#71 = CARTESIAN_POINT ( 'NONE',  ( 0.0000000000000000000, 0.0000000000000000000, 0.0000000000000000000 ) ) ;
#72 = SURFACE_SIDE_STYLE ('',( #35 ) ) ;
#73 = VECTOR ( 'NONE', #13, 1000.000000000000000 ) ;
#74 = DIRECTION ( 'NONE',  ( 0.0000000000000000000, 1.000000000000000000, 0.0000000000000000000 ) ) ;
#75 = PRESENTATION_STYLE_ASSIGNMENT (( #86 ) ) ;
#76 = LINE ( 'NONE', #97, #73 ) ;
#77 = EDGE_CURVE ( 'NONE', #55, #39, #116, .T. ) ;
#78 = AXIS2_PLACEMENT_3D ( 'NONE', #104, #32, #57 ) ;
#79 = AXIS2_PLACEMENT_3D ( 'NONE', #103, #70, #127 ) ;
#80 =( LENGTH_UNIT ( ) NAMED_UNIT ( * ) SI_UNIT ( .MILLI., .METRE. ) );
#81 = ADVANCED_FACE ( 'NONE', ( #144 ), #48, .F. ) ;
#82 = ORIENTED_EDGE ( 'NONE', *, *, #34, .T. ) ;
#83 = CARTESIAN_POINT ( 'NONE',  ( 9.209999999999940500, 0.0000000000000000000, 6.123233995736766200E-014 ) ) ;
#84 = DIRECTION ( 'NONE',  ( 0.0000000000000000000, 0.0000000000000000000, 1.000000000000000000 ) ) ;
#85 = FACE_OUTER_BOUND ( 'NONE', #33, .T. ) ;
#86 = SURFACE_STYLE_USAGE ( .BOTH. , #135 ) ;
#87 = PRODUCT ( '432533', '432533', '', ( #125 ) ) ;
#88 = DIRECTION ( 'NONE',  ( 0.0000000000000000000, 0.0000000000000000000, 1.000000000000000000 ) ) ;
#89 = ORIENTED_EDGE ( 'NONE', *, *, #99, .T. ) ;
#90 =( LENGTH_UNIT ( ) NAMED_UNIT ( * ) SI_UNIT ( .MILLI., .METRE. ) );
#91 = EDGE_CURVE ( 'NONE', #156, #166, #6, .T. ) ;
#92 = ADVANCED_FACE ( 'NONE', ( #8 ), #128, .T. ) ;
#93 = SURFACE_STYLE_FILL_AREA ( #47 ) ;
#94 = AXIS2_PLACEMENT_3D ( 'NONE', #132, #74, #84 ) ;
#95 = AXIS2_PLACEMENT_3D ( 'NONE', #149, #145, #163 ) ;
#96 = CARTESIAN_POINT ( 'NONE',  ( 1009.209999999999900, 0.0000000000000000000, 0.0000000000000000000 ) ) ;
#97 = CARTESIAN_POINT ( 'NONE',  ( 0.0000000000000000000, 0.0000000000000000000, 25.39999999999994200 ) ) ;
#98 = CIRCLE ( 'NONE', #18, 25.39999999999988500 ) ;
#99 = EDGE_CURVE ( 'NONE', #156, #20, #76, .T. ) ;
#100 = CIRCLE ( 'NONE', #165, 25.39999999999999900 ) ;
#101 = AXIS2_PLACEMENT_3D ( 'NONE', #68, #15, #142 ) ;
#102 = DIRECTION ( 'NONE',  ( 0.0000000000000000000, -1.224646799147353200E-016, 1.000000000000000000 ) ) ;
#103 = CARTESIAN_POINT ( 'NONE',  ( 9.532632045718415300, 0.0000000000000000000, 0.0000000000000000000 ) ) ;
#104 = CARTESIAN_POINT ( 'NONE',  ( 0.0000000000000000000, 0.0000000000000000000, 0.0000000000000000000 ) ) ;
#105 = FILL_AREA_STYLE_COLOUR ( '', #154 ) ;
#106 = APPLICATION_PROTOCOL_DEFINITION ( 'draft international standard', 'automotive_design', 1998, #44 ) ;
#107 = PRODUCT_DEFINITION_CONTEXT ( 'detailed design', #31, 'design' ) ;
#108 = EDGE_CURVE ( 'NONE', #55, #166, #123, .T. ) ;
#109 = ORIENTED_EDGE ( 'NONE', *, *, #34, .F. ) ;
#110 = CIRCLE ( 'NONE', #79, 25.39999999999988500 ) ;
#111 = CARTESIAN_POINT ( 'NONE',  ( 0.0000000000000000000, 0.0000000000000000000, 0.0000000000000000000 ) ) ;
#112 = STYLED_ITEM ( 'NONE', ( #75 ), #152 ) ;
#113 = SPHERICAL_SURFACE ( 'NONE', #159, 1000.000000000000000 ) ;
#114 = CARTESIAN_POINT ( 'NONE',  ( 0.0000000000000000000, 0.0000000000000000000, 25.39999999999999900 ) ) ;
#115 = SURFACE_STYLE_USAGE ( .BOTH. , #72 ) ;
#116 = LINE ( 'NONE', #37, #143 ) ;
#117 = ORIENTED_EDGE ( 'NONE', *, *, #65, .F. ) ;
#118 = MECHANICAL_DESIGN_GEOMETRIC_PRESENTATION_REPRESENTATION (  '', ( #112 ), #157 ) ;
#119 = ORIENTED_EDGE ( 'NONE', *, *, #108, .F. ) ;
#120 = UNCERTAINTY_MEASURE_WITH_UNIT (LENGTH_MEASURE( 1.000000000000000100E-005 ), #90, 'distance_accuracy_value', 'NONE');
#121 = DIRECTION ( 'NONE',  ( -1.000000000000000000, -0.0000000000000000000, -0.0000000000000000000 ) ) ;
#122 = UNCERTAINTY_MEASURE_WITH_UNIT (LENGTH_MEASURE( 1.000000000000000100E-005 ), #129, 'distance_accuracy_value', 'NONE');
#123 = CIRCLE ( 'NONE', #69, 1000.000000000000000 ) ;
#124 = UNCERTAINTY_MEASURE_WITH_UNIT (LENGTH_MEASURE( 1.000000000000000100E-005 ), #80, 'distance_accuracy_value', 'NONE');
#125 = PRODUCT_CONTEXT ( 'NONE', #44, 'mechanical' ) ;
#126 = CARTESIAN_POINT ( 'NONE',  ( 0.0000000000000000000, 0.0000000000000000000, 0.0000000000000000000 ) ) ;
#127 = DIRECTION ( 'NONE',  ( 0.0000000000000000000, 0.0000000000000000000, 1.000000000000000000 ) ) ;
#128 = CYLINDRICAL_SURFACE ( 'NONE', #78, 25.39999999999994200 ) ;
#129 =( LENGTH_UNIT ( ) NAMED_UNIT ( * ) SI_UNIT ( .MILLI., .METRE. ) );
#130 = PRESENTATION_LAYER_ASSIGNMENT (  '', '', ( #36 ) ) ;
#131 = FACE_OUTER_BOUND ( 'NONE', #56, .T. ) ;
#132 = CARTESIAN_POINT ( 'NONE',  ( 1009.209999999999900, 0.0000000000000000000, 0.0000000000000000000 ) ) ;
#133 = CARTESIAN_POINT ( 'NONE',  ( 9.532632045718415300, 0.0000000000000000000, 0.0000000000000000000 ) ) ;
#134 = PRODUCT_DEFINITION_SHAPE ( 'NONE', 'NONE',  #160 ) ;
#135 = SURFACE_SIDE_STYLE ('',( #93 ) ) ;
#136 = FILL_AREA_STYLE ('',( #139 ) ) ;
#137 = EDGE_CURVE ( 'NONE', #39, #20, #100, .T. ) ;
#138 = ORIENTED_EDGE ( 'NONE', *, *, #77, .T. ) ;
#139 = FILL_AREA_STYLE_COLOUR ( '', #26 ) ;
#140 = DIRECTION ( 'NONE',  ( 0.0000000000000000000, 0.0000000000000000000, 1.000000000000000000 ) ) ;
#141 = AXIS2_PLACEMENT_3D ( 'NONE', #71, #58, #21 ) ;
#142 = DIRECTION ( 'NONE',  ( 0.0000000000000000000, 0.0000000000000000000, -1.000000000000000000 ) ) ;
#143 = VECTOR ( 'NONE', #121, 1000.000000000000000 ) ;
#144 = FACE_OUTER_BOUND ( 'NONE', #23, .T. ) ;
#145 = DIRECTION ( 'NONE',  ( 0.0000000000000000000, -1.000000000000000000, 0.0000000000000000000 ) ) ;
#146 = ADVANCED_FACE ( 'NONE', ( #85 ), #113, .F. ) ;
#147 = ORIENTED_EDGE ( 'NONE', *, *, #137, .F. ) ;
#148 = SHAPE_DEFINITION_REPRESENTATION ( #134, #152 ) ;
#149 = CARTESIAN_POINT ( 'NONE',  ( 1009.209999999999900, 0.0000000000000000000, 0.0000000000000000000 ) ) ;
#150 = MECHANICAL_DESIGN_GEOMETRIC_PRESENTATION_REPRESENTATION (  '', ( #36 ), #14 ) ;
#151 = ORIENTED_EDGE ( 'NONE', *, *, #108, .T. ) ;
#152 = ADVANCED_BREP_SHAPE_REPRESENTATION ( '432533', ( #1, #10 ), #43 ) ;
#153 = PRESENTATION_STYLE_ASSIGNMENT (( #115 ) ) ;
#154 = COLOUR_RGB ( '',1.000000000000000000, 1.000000000000000000, 1.000000000000000000 ) ;
#155 = ORIENTED_EDGE ( 'NONE', *, *, #99, .F. ) ;
#156 = VERTEX_POINT ( 'NONE', #64 ) ;
#157 =( GEOMETRIC_REPRESENTATION_CONTEXT ( 3 ) GLOBAL_UNCERTAINTY_ASSIGNED_CONTEXT ( ( #120 ) ) GLOBAL_UNIT_ASSIGNED_CONTEXT ( ( #90, #62, #42 ) ) REPRESENTATION_CONTEXT ( 'NONE', 'WORKASPACE' ) );
#158 =( NAMED_UNIT ( * ) SI_UNIT ( $, .STERADIAN. ) SOLID_ANGLE_UNIT ( ) );
#159 = AXIS2_PLACEMENT_3D ( 'NONE', #11, #162, #67 ) ;
#160 = PRODUCT_DEFINITION ( 'Î´Öª', '', #40, #107 ) ;
#161 = APPLICATION_PROTOCOL_DEFINITION ( 'draft international standard', 'automotive_design', 1998, #31 ) ;
#162 = DIRECTION ( 'NONE',  ( 0.0000000000000000000, 1.000000000000000000, 0.0000000000000000000 ) ) ;
#163 = DIRECTION ( 'NONE',  ( 0.0000000000000000000, 0.0000000000000000000, -1.000000000000000000 ) ) ;
#164 = ADVANCED_FACE ( 'NONE', ( #131 ), #12, .F. ) ;
#165 = AXIS2_PLACEMENT_3D ( 'NONE', #126, #17, #88 ) ;
#166 = VERTEX_POINT ( 'NONE', #83 ) ;
ENDSEC;
END-ISO-10303-21;
