ISO-10303-21;
HEADER;
FILE_DESCRIPTION (( 'STEP AP214' ),
    '1' );
FILE_NAME ('432503.STEP',
    '2019-08-26T08:39:03',
    ( 'user' ),
    ( 'Î¢ÈíÖÐ¹ú' ),
    'SwSTEP 2.0',
    'SolidWorks 2016',
    '' );
FILE_SCHEMA (( 'AUTOMOTIVE_DESIGN' ));
ENDSEC;

DATA;
#1 = FILL_AREA_STYLE ('',( #105 ) ) ;
#2 = ORIENTED_EDGE ( 'NONE', *, *, #131, .T. ) ;
#3 = DIRECTION ( 'NONE',  ( 0.0000000000000000000, 0.0000000000000000000, 1.000000000000000000 ) ) ;
#4 = SPHERICAL_SURFACE ( 'NONE', #65, 200.0000000000000000 ) ;
#5 = VERTEX_POINT ( 'NONE', #59 ) ;
#6 = PRODUCT_DEFINITION_CONTEXT ( 'detailed design', #39, 'design' ) ;
#7 = LINE ( 'NONE', #72, #109 ) ;
#8 = MECHANICAL_DESIGN_GEOMETRIC_PRESENTATION_REPRESENTATION (  '', ( #116 ), #58 ) ;
#9 = VERTEX_POINT ( 'NONE', #148 ) ;
#10 = FACE_OUTER_BOUND ( 'NONE', #34, .T. ) ;
#11 = COLOUR_RGB ( '',1.000000000000000000, 1.000000000000000000, 1.000000000000000000 ) ;
#12 = AXIS2_PLACEMENT_3D ( 'NONE', #86, #143, #68 ) ;
#13 = DIRECTION ( 'NONE',  ( -1.000000000000000000, -0.0000000000000000000, -0.0000000000000000000 ) ) ;
#14 = ORIENTED_EDGE ( 'NONE', *, *, #75, .F. ) ;
#15 = CARTESIAN_POINT ( 'NONE',  ( 0.0000000000000000000, 0.0000000000000000000, 0.0000000000000000000 ) ) ;
#16 = DIRECTION ( 'NONE',  ( 0.0000000000000000000, 0.0000000000000000000, 1.000000000000000000 ) ) ;
#17 = VECTOR ( 'NONE', #141, 1000.000000000000000 ) ;
#18 = DIRECTION ( 'NONE',  ( 1.000000000000000000, 0.0000000000000000000, 0.0000000000000000000 ) ) ;
#19 =( GEOMETRIC_REPRESENTATION_CONTEXT ( 3 ) GLOBAL_UNCERTAINTY_ASSIGNED_CONTEXT ( ( #84 ) ) GLOBAL_UNIT_ASSIGNED_CONTEXT ( ( #158, #63, #112 ) ) REPRESENTATION_CONTEXT ( 'NONE', 'WORKASPACE' ) );
#20 = ORIENTED_EDGE ( 'NONE', *, *, #155, .F. ) ;
#21 = DIRECTION ( 'NONE',  ( 0.0000000000000000000, 1.000000000000000000, 0.0000000000000000000 ) ) ;
#22 = EDGE_CURVE ( 'NONE', #9, #137, #125, .T. ) ;
#23 = DIRECTION ( 'NONE',  ( 0.0000000000000000000, 0.0000000000000000000, 1.000000000000000000 ) ) ;
#24 = PRODUCT_DEFINITION_SHAPE ( 'NONE', 'NONE',  #157 ) ;
#25 = SURFACE_STYLE_USAGE ( .BOTH. , #121 ) ;
#26 = CIRCLE ( 'NONE', #92, 6.349999999999999600 ) ;
#27 = APPLICATION_CONTEXT ( 'automotive_design' ) ;
#28 = AXIS2_PLACEMENT_3D ( 'NONE', #114, #133, #82 ) ;
#29 = DIRECTION ( 'NONE',  ( 0.0000000000000000000, 0.0000000000000000000, 1.000000000000000000 ) ) ;
#30 = DIRECTION ( 'NONE',  ( 0.0000000000000000000, 0.0000000000000000000, 1.000000000000000000 ) ) ;
#31 = CARTESIAN_POINT ( 'NONE',  ( 0.0000000000000000000, 7.776507174585725700E-016, -6.349999999999999600 ) ) ;
#32 = MECHANICAL_DESIGN_GEOMETRIC_PRESENTATION_REPRESENTATION (  '', ( #111 ), #51 ) ;
#33 =( NAMED_UNIT ( * ) SI_UNIT ( $, .STERADIAN. ) SOLID_ANGLE_UNIT ( ) );
#34 = EDGE_LOOP ( 'NONE', ( #20, #88, #135, #113 ) ) ;
#35 = PRODUCT_DEFINITION_FORMATION_WITH_SPECIFIED_SOURCE ( 'ÈÎºÎ', '', #159, .NOT_KNOWN. ) ;
#36 = MANIFOLD_SOLID_BREP ( 'Ðý×ª1', #61 ) ;
#37 = EDGE_LOOP ( 'NONE', ( #70, #117, #52 ) ) ;
#38 = CYLINDRICAL_SURFACE ( 'NONE', #50, 6.350000000000054700 ) ;
#39 = APPLICATION_CONTEXT ( 'automotive_design' ) ;
#40 = EDGE_CURVE ( 'NONE', #156, #9, #54, .T. ) ;
#41 = CARTESIAN_POINT ( 'NONE',  ( 0.0000000000000000000, 0.0000000000000000000, 0.0000000000000000000 ) ) ;
#42 = PLANE ( 'NONE',  #12 ) ;
#43 = EDGE_LOOP ( 'NONE', ( #100, #76, #123, #91 ) ) ;
#44 = CARTESIAN_POINT ( 'NONE',  ( 3.079999999999999200, 0.0000000000000000000, 1.224646799147353200E-014 ) ) ;
#45 = FACE_OUTER_BOUND ( 'NONE', #43, .T. ) ;
#46 = EDGE_CURVE ( 'NONE', #137, #9, #26, .T. ) ;
#47 = CARTESIAN_POINT ( 'NONE',  ( 0.0000000000000000000, 0.0000000000000000000, 0.0000000000000000000 ) ) ;
#48 = UNCERTAINTY_MEASURE_WITH_UNIT (LENGTH_MEASURE( 1.000000000000000100E-005 ), #71, 'distance_accuracy_value', 'NONE');
#49 = CIRCLE ( 'NONE', #90, 6.350000000000108900 ) ;
#50 = AXIS2_PLACEMENT_3D ( 'NONE', #41, #66, #23 ) ;
#51 =( GEOMETRIC_REPRESENTATION_CONTEXT ( 3 ) GLOBAL_UNCERTAINTY_ASSIGNED_CONTEXT ( ( #48 ) ) GLOBAL_UNIT_ASSIGNED_CONTEXT ( ( #71, #142, #96 ) ) REPRESENTATION_CONTEXT ( 'NONE', 'WORKASPACE' ) );
#52 = ORIENTED_EDGE ( 'NONE', *, *, #131, .F. ) ;
#53 = ADVANCED_FACE ( 'NONE', ( #89 ), #42, .F. ) ;
#54 = LINE ( 'NONE', #57, #17 ) ;
#55 = DIRECTION ( 'NONE',  ( 0.0000000000000000000, 1.000000000000000000, 0.0000000000000000000 ) ) ;
#56 = CARTESIAN_POINT ( 'NONE',  ( 3.180831667562972400, 0.0000000000000000000, 6.350000000000410000 ) ) ;
#57 = CARTESIAN_POINT ( 'NONE',  ( 0.0000000000000000000, 0.0000000000000000000, 6.350000000000054700 ) ) ;
#58 =( GEOMETRIC_REPRESENTATION_CONTEXT ( 3 ) GLOBAL_UNCERTAINTY_ASSIGNED_CONTEXT ( ( #139 ) ) GLOBAL_UNIT_ASSIGNED_CONTEXT ( ( #162, #93, #33 ) ) REPRESENTATION_CONTEXT ( 'NONE', 'WORKASPACE' ) );
#59 = CARTESIAN_POINT ( 'NONE',  ( 3.180831667562972400, 7.776507174586195100E-016, -6.350000000000410000 ) ) ;
#60 = AXIS2_PLACEMENT_3D ( 'NONE', #15, #81, #95 ) ;
#61 = CLOSED_SHELL ( 'NONE', ( #153, #166, #53, #118, #101 ) ) ;
#62 = CARTESIAN_POINT ( 'NONE',  ( 0.0000000000000000000, 0.0000000000000000000, 0.0000000000000000000 ) ) ;
#63 =( NAMED_UNIT ( * ) PLANE_ANGLE_UNIT ( ) SI_UNIT ( $, .RADIAN. ) );
#64 = COLOUR_RGB ( '',1.000000000000000000, 1.000000000000000000, 1.000000000000000000 ) ;
#65 = AXIS2_PLACEMENT_3D ( 'NONE', #126, #55, #29 ) ;
#66 = DIRECTION ( 'NONE',  ( -1.000000000000000000, -0.0000000000000000000, -0.0000000000000000000 ) ) ;
#67 = PRODUCT_CONTEXT ( 'NONE', #27, 'mechanical' ) ;
#68 = DIRECTION ( 'NONE',  ( 0.0000000000000000000, 0.0000000000000000000, -1.000000000000000000 ) ) ;
#69 = APPLICATION_PROTOCOL_DEFINITION ( 'draft international standard', 'automotive_design', 1998, #39 ) ;
#70 = ORIENTED_EDGE ( 'NONE', *, *, #87, .F. ) ;
#71 =( LENGTH_UNIT ( ) NAMED_UNIT ( * ) SI_UNIT ( .MILLI., .METRE. ) );
#72 = CARTESIAN_POINT ( 'NONE',  ( 0.0000000000000000000, 7.776507174585759200E-016, -6.350000000000054700 ) ) ;
#73 = ORIENTED_EDGE ( 'NONE', *, *, #46, .T. ) ;
#74 = SURFACE_STYLE_FILL_AREA ( #85 ) ;
#75 = EDGE_CURVE ( 'NONE', #5, #132, #152, .T. ) ;
#76 = ORIENTED_EDGE ( 'NONE', *, *, #155, .T. ) ;
#77 = ADVANCED_BREP_SHAPE_REPRESENTATION ( '432503', ( #36, #99 ), #19 ) ;
#78 = CYLINDRICAL_SURFACE ( 'NONE', #128, 6.350000000000054700 ) ;
#79 = CARTESIAN_POINT ( 'NONE',  ( 203.0800000000000100, 0.0000000000000000000, 0.0000000000000000000 ) ) ;
#80 = ORIENTED_EDGE ( 'NONE', *, *, #122, .F. ) ;
#81 = DIRECTION ( 'NONE',  ( -1.000000000000000000, -0.0000000000000000000, -0.0000000000000000000 ) ) ;
#82 = DIRECTION ( 'NONE',  ( 0.0000000000000000000, 0.0000000000000000000, -1.000000000000000000 ) ) ;
#83 = SPHERICAL_SURFACE ( 'NONE', #103, 200.0000000000000000 ) ;
#84 = UNCERTAINTY_MEASURE_WITH_UNIT (LENGTH_MEASURE( 1.000000000000000100E-005 ), #158, 'distance_accuracy_value', 'NONE');
#85 = FILL_AREA_STYLE ('',( #145 ) ) ;
#86 = CARTESIAN_POINT ( 'NONE',  ( 0.0000000000000000000, 0.0000000000000000000, 0.0000000000000000000 ) ) ;
#87 = EDGE_CURVE ( 'NONE', #5, #156, #49, .T. ) ;
#88 = ORIENTED_EDGE ( 'NONE', *, *, #87, .T. ) ;
#89 = FACE_OUTER_BOUND ( 'NONE', #106, .T. ) ;
#90 = AXIS2_PLACEMENT_3D ( 'NONE', #149, #13, #3 ) ;
#91 = ORIENTED_EDGE ( 'NONE', *, *, #40, .F. ) ;
#92 = AXIS2_PLACEMENT_3D ( 'NONE', #107, #134, #30 ) ;
#93 =( NAMED_UNIT ( * ) PLANE_ANGLE_UNIT ( ) SI_UNIT ( $, .RADIAN. ) );
#94 = SURFACE_SIDE_STYLE ('',( #74 ) ) ;
#95 = DIRECTION ( 'NONE',  ( 0.0000000000000000000, 0.0000000000000000000, 1.000000000000000000 ) ) ;
#96 =( NAMED_UNIT ( * ) SI_UNIT ( $, .STERADIAN. ) SOLID_ANGLE_UNIT ( ) );
#97 = SURFACE_STYLE_FILL_AREA ( #1 ) ;
#98 = CARTESIAN_POINT ( 'NONE',  ( 203.0800000000000100, 0.0000000000000000000, 0.0000000000000000000 ) ) ;
#99 = AXIS2_PLACEMENT_3D ( 'NONE', #62, #154, #18 ) ;
#100 = ORIENTED_EDGE ( 'NONE', *, *, #122, .T. ) ;
#101 = ADVANCED_FACE ( 'NONE', ( #10 ), #78, .T. ) ;
#102 = SHAPE_DEFINITION_REPRESENTATION ( #24, #77 ) ;
#103 = AXIS2_PLACEMENT_3D ( 'NONE', #98, #21, #161 ) ;
#104 = PRESENTATION_LAYER_ASSIGNMENT (  '', '', ( #116 ) ) ;
#105 = FILL_AREA_STYLE_COLOUR ( '', #64 ) ;
#106 = EDGE_LOOP ( 'NONE', ( #165, #73 ) ) ;
#107 = CARTESIAN_POINT ( 'NONE',  ( 0.0000000000000000000, 0.0000000000000000000, 0.0000000000000000000 ) ) ;
#108 = DIRECTION ( 'NONE',  ( -1.000000000000000000, -0.0000000000000000000, -0.0000000000000000000 ) ) ;
#109 = VECTOR ( 'NONE', #151, 1000.000000000000000 ) ;
#110 = DIRECTION ( 'NONE',  ( 0.0000000000000000000, -1.224646799147353200E-016, 1.000000000000000000 ) ) ;
#111 = STYLED_ITEM ( 'NONE', ( #163 ), #36 ) ;
#112 =( NAMED_UNIT ( * ) SI_UNIT ( $, .STERADIAN. ) SOLID_ANGLE_UNIT ( ) );
#113 = ORIENTED_EDGE ( 'NONE', *, *, #46, .F. ) ;
#114 = CARTESIAN_POINT ( 'NONE',  ( 203.0800000000000100, 0.0000000000000000000, 0.0000000000000000000 ) ) ;
#115 = CIRCLE ( 'NONE', #28, 200.0000000000000000 ) ;
#116 = STYLED_ITEM ( 'NONE', ( #160 ), #77 ) ;
#117 = ORIENTED_EDGE ( 'NONE', *, *, #75, .T. ) ;
#118 = ADVANCED_FACE ( 'NONE', ( #147 ), #83, .F. ) ;
#119 = CIRCLE ( 'NONE', #129, 6.350000000000108900 ) ;
#120 = DIRECTION ( 'NONE',  ( 0.0000000000000000000, 0.0000000000000000000, 1.000000000000000000 ) ) ;
#121 = SURFACE_SIDE_STYLE ('',( #97 ) ) ;
#122 = EDGE_CURVE ( 'NONE', #156, #5, #119, .T. ) ;
#123 = ORIENTED_EDGE ( 'NONE', *, *, #22, .F. ) ;
#124 = DIRECTION ( 'NONE',  ( -0.0000000000000000000, 1.000000000000000000, 1.224646799147353200E-016 ) ) ;
#125 = CIRCLE ( 'NONE', #60, 6.349999999999999600 ) ;
#126 = CARTESIAN_POINT ( 'NONE',  ( 203.0800000000000100, 0.0000000000000000000, 0.0000000000000000000 ) ) ;
#127 = APPLICATION_PROTOCOL_DEFINITION ( 'draft international standard', 'automotive_design', 1998, #27 ) ;
#128 = AXIS2_PLACEMENT_3D ( 'NONE', #47, #108, #16 ) ;
#129 = AXIS2_PLACEMENT_3D ( 'NONE', #146, #130, #120 ) ;
#130 = DIRECTION ( 'NONE',  ( -1.000000000000000000, -0.0000000000000000000, -0.0000000000000000000 ) ) ;
#131 = EDGE_CURVE ( 'NONE', #156, #132, #115, .T. ) ;
#132 = VERTEX_POINT ( 'NONE', #44 ) ;
#133 = DIRECTION ( 'NONE',  ( 0.0000000000000000000, -1.000000000000000000, 0.0000000000000000000 ) ) ;
#134 = DIRECTION ( 'NONE',  ( -1.000000000000000000, -0.0000000000000000000, -0.0000000000000000000 ) ) ;
#135 = ORIENTED_EDGE ( 'NONE', *, *, #40, .T. ) ;
#136 = AXIS2_PLACEMENT_3D ( 'NONE', #79, #124, #110 ) ;
#137 = VERTEX_POINT ( 'NONE', #31 ) ;
#138 = PRODUCT_RELATED_PRODUCT_CATEGORY ( 'part', '', ( #159 ) ) ;
#139 = UNCERTAINTY_MEASURE_WITH_UNIT (LENGTH_MEASURE( 1.000000000000000100E-005 ), #162, 'distance_accuracy_value', 'NONE');
#140 = FACE_OUTER_BOUND ( 'NONE', #37, .T. ) ;
#141 = DIRECTION ( 'NONE',  ( -1.000000000000000000, -0.0000000000000000000, -0.0000000000000000000 ) ) ;
#142 =( NAMED_UNIT ( * ) PLANE_ANGLE_UNIT ( ) SI_UNIT ( $, .RADIAN. ) );
#143 = DIRECTION ( 'NONE',  ( 1.000000000000000000, 0.0000000000000000000, 0.0000000000000000000 ) ) ;
#144 = EDGE_LOOP ( 'NONE', ( #14, #80, #2 ) ) ;
#145 = FILL_AREA_STYLE_COLOUR ( '', #11 ) ;
#146 = CARTESIAN_POINT ( 'NONE',  ( 3.180831667562972400, 0.0000000000000000000, 0.0000000000000000000 ) ) ;
#147 = FACE_OUTER_BOUND ( 'NONE', #144, .T. ) ;
#148 = CARTESIAN_POINT ( 'NONE',  ( 0.0000000000000000000, 0.0000000000000000000, 6.349999999999999600 ) ) ;
#149 = CARTESIAN_POINT ( 'NONE',  ( 3.180831667562972400, 0.0000000000000000000, 0.0000000000000000000 ) ) ;
#150 = SURFACE_STYLE_USAGE ( .BOTH. , #94 ) ;
#151 = DIRECTION ( 'NONE',  ( -1.000000000000000000, -0.0000000000000000000, -0.0000000000000000000 ) ) ;
#152 = CIRCLE ( 'NONE', #136, 200.0000000000000000 ) ;
#153 = ADVANCED_FACE ( 'NONE', ( #45 ), #38, .T. ) ;
#154 = DIRECTION ( 'NONE',  ( 0.0000000000000000000, 0.0000000000000000000, 1.000000000000000000 ) ) ;
#155 = EDGE_CURVE ( 'NONE', #5, #137, #7, .T. ) ;
#156 = VERTEX_POINT ( 'NONE', #56 ) ;
#157 = PRODUCT_DEFINITION ( 'Î´Öª', '', #35, #6 ) ;
#158 =( LENGTH_UNIT ( ) NAMED_UNIT ( * ) SI_UNIT ( .MILLI., .METRE. ) );
#159 = PRODUCT ( '432503', '432503', '', ( #67 ) ) ;
#160 = PRESENTATION_STYLE_ASSIGNMENT (( #150 ) ) ;
#161 = DIRECTION ( 'NONE',  ( 0.0000000000000000000, 0.0000000000000000000, 1.000000000000000000 ) ) ;
#162 =( LENGTH_UNIT ( ) NAMED_UNIT ( * ) SI_UNIT ( .MILLI., .METRE. ) );
#163 = PRESENTATION_STYLE_ASSIGNMENT (( #25 ) ) ;
#164 = PRESENTATION_LAYER_ASSIGNMENT (  '', '', ( #111 ) ) ;
#165 = ORIENTED_EDGE ( 'NONE', *, *, #22, .T. ) ;
#166 = ADVANCED_FACE ( 'NONE', ( #140 ), #4, .F. ) ;
ENDSEC;
END-ISO-10303-21;
