ISO-10303-21;
HEADER;
FILE_DESCRIPTION (( 'STEP AP214' ),
    '1' );
FILE_NAME ('432500.STEP',
    '2019-08-26T07:24:20',
    ( 'user' ),
    ( 'Î¢ÈíÖÐ¹ú' ),
    'SwSTEP 2.0',
    'SolidWorks 2016',
    '' );
FILE_SCHEMA (( 'AUTOMOTIVE_DESIGN' ));
ENDSEC;

DATA;
#1 = ORIENTED_EDGE ( 'NONE', *, *, #4, .F. ) ;
#2 = EDGE_LOOP ( 'NONE', ( #1, #114, #126 ) ) ;
#3 = DIRECTION ( 'NONE',  ( -1.000000000000000000, -0.0000000000000000000, -0.0000000000000000000 ) ) ;
#4 = EDGE_CURVE ( 'NONE', #95, #139, #17, .T. ) ;
#5 = SURFACE_STYLE_FILL_AREA ( #115 ) ;
#6 = LINE ( 'NONE', #157, #82 ) ;
#7 = SURFACE_SIDE_STYLE ('',( #14 ) ) ;
#8 = SURFACE_STYLE_USAGE ( .BOTH. , #18 ) ;
#9 =( LENGTH_UNIT ( ) NAMED_UNIT ( * ) SI_UNIT ( .MILLI., .METRE. ) );
#10 = PLANE ( 'NONE',  #22 ) ;
#11 = EDGE_CURVE ( 'NONE', #95, #68, #6, .T. ) ;
#12 = VERTEX_POINT ( 'NONE', #141 ) ;
#13 = STYLED_ITEM ( 'NONE', ( #27 ), #21 ) ;
#14 = SURFACE_STYLE_FILL_AREA ( #85 ) ;
#15 = ORIENTED_EDGE ( 'NONE', *, *, #11, .T. ) ;
#16 = PRODUCT_DEFINITION ( 'Î´Öª', '', #113, #41 ) ;
#17 = CIRCLE ( 'NONE', #109, 6.350000000000017400 ) ;
#18 = SURFACE_SIDE_STYLE ('',( #5 ) ) ;
#19 = DIRECTION ( 'NONE',  ( -1.000000000000000000, -0.0000000000000000000, -0.0000000000000000000 ) ) ;
#20 = DIRECTION ( 'NONE',  ( -1.000000000000000000, -0.0000000000000000000, -0.0000000000000000000 ) ) ;
#21 = ADVANCED_BREP_SHAPE_REPRESENTATION ( '432500', ( #94, #122 ), #78 ) ;
#22 = AXIS2_PLACEMENT_3D ( 'NONE', #164, #133, #62 ) ;
#23 = EDGE_CURVE ( 'NONE', #139, #24, #132, .T. ) ;
#24 = VERTEX_POINT ( 'NONE', #106 ) ;
#25 = DIRECTION ( 'NONE',  ( 0.0000000000000000000, 0.0000000000000000000, 1.000000000000000000 ) ) ;
#26 = DIRECTION ( 'NONE',  ( 0.0000000000000000000, -1.224646799147353200E-016, 1.000000000000000000 ) ) ;
#27 = PRESENTATION_STYLE_ASSIGNMENT (( #8 ) ) ;
#28 = CARTESIAN_POINT ( 'NONE',  ( 27.36000000000000300, 0.0000000000000000000, 0.0000000000000000000 ) ) ;
#29 = FACE_OUTER_BOUND ( 'NONE', #96, .T. ) ;
#30 = FILL_AREA_STYLE_COLOUR ( '', #104 ) ;
#31 = AXIS2_PLACEMENT_3D ( 'NONE', #137, #150, #128 ) ;
#32 = DIRECTION ( 'NONE',  ( 0.0000000000000000000, 0.0000000000000000000, 1.000000000000000000 ) ) ;
#33 = DIRECTION ( 'NONE',  ( -1.000000000000000000, -0.0000000000000000000, -0.0000000000000000000 ) ) ;
#34 = EDGE_CURVE ( 'NONE', #24, #68, #67, .T. ) ;
#35 = ADVANCED_FACE ( 'NONE', ( #124 ), #10, .F. ) ;
#36 = ORIENTED_EDGE ( 'NONE', *, *, #64, .T. ) ;
#37 = VECTOR ( 'NONE', #20, 1000.000000000000000 ) ;
#38 = ORIENTED_EDGE ( 'NONE', *, *, #4, .T. ) ;
#39 = CARTESIAN_POINT ( 'NONE',  ( 3.179894541172907800, 0.0000000000000000000, 0.0000000000000000000 ) ) ;
#40 = AXIS2_PLACEMENT_3D ( 'NONE', #134, #33, #25 ) ;
#41 = PRODUCT_DEFINITION_CONTEXT ( 'detailed design', #138, 'design' ) ;
#42 = APPLICATION_CONTEXT ( 'automotive_design' ) ;
#43 = DIRECTION ( 'NONE',  ( -1.000000000000000000, -0.0000000000000000000, -0.0000000000000000000 ) ) ;
#44 = UNCERTAINTY_MEASURE_WITH_UNIT (LENGTH_MEASURE( 1.000000000000000100E-005 ), #9, 'distance_accuracy_value', 'NONE');
#45 = DIRECTION ( 'NONE',  ( 0.0000000000000000000, -1.000000000000000000, 0.0000000000000000000 ) ) ;
#46 = EDGE_CURVE ( 'NONE', #139, #12, #71, .T. ) ;
#47 = FACE_OUTER_BOUND ( 'NONE', #2, .T. ) ;
#48 = AXIS2_PLACEMENT_3D ( 'NONE', #69, #3, #90 ) ;
#49 = DIRECTION ( 'NONE',  ( 0.0000000000000000000, 0.0000000000000000000, 1.000000000000000000 ) ) ;
#50 = ORIENTED_EDGE ( 'NONE', *, *, #64, .F. ) ;
#51 = DIRECTION ( 'NONE',  ( 0.0000000000000000000, 0.0000000000000000000, -1.000000000000000000 ) ) ;
#52 = PRESENTATION_LAYER_ASSIGNMENT (  '', '', ( #112 ) ) ;
#53 = UNCERTAINTY_MEASURE_WITH_UNIT (LENGTH_MEASURE( 1.000000000000000100E-005 ), #87, 'distance_accuracy_value', 'NONE');
#54 = DIRECTION ( 'NONE',  ( -1.000000000000000000, -0.0000000000000000000, -0.0000000000000000000 ) ) ;
#55 = CARTESIAN_POINT ( 'NONE',  ( 0.0000000000000000000, 0.0000000000000000000, 6.350000000000008500 ) ) ;
#56 = CIRCLE ( 'NONE', #105, 25.00000000000000000 ) ;
#57 =( GEOMETRIC_REPRESENTATION_CONTEXT ( 3 ) GLOBAL_UNCERTAINTY_ASSIGNED_CONTEXT ( ( #53 ) ) GLOBAL_UNIT_ASSIGNED_CONTEXT ( ( #87, #160, #73 ) ) REPRESENTATION_CONTEXT ( 'NONE', 'WORKASPACE' ) );
#58 = DIRECTION ( 'NONE',  ( 0.0000000000000000000, 0.0000000000000000000, 1.000000000000000000 ) ) ;
#59 = APPLICATION_PROTOCOL_DEFINITION ( 'draft international standard', 'automotive_design', 1998, #42 ) ;
#60 = AXIS2_PLACEMENT_3D ( 'NONE', #77, #43, #102 ) ;
#61 = FACE_OUTER_BOUND ( 'NONE', #93, .T. ) ;
#62 = DIRECTION ( 'NONE',  ( 0.0000000000000000000, 0.0000000000000000000, -1.000000000000000000 ) ) ;
#63 = ORIENTED_EDGE ( 'NONE', *, *, #34, .F. ) ;
#64 = EDGE_CURVE ( 'NONE', #139, #95, #121, .T. ) ;
#65 = ADVANCED_FACE ( 'NONE', ( #29 ), #142, .T. ) ;
#66 = PRODUCT_RELATED_PRODUCT_CATEGORY ( 'part', '', ( #162 ) ) ;
#67 = CIRCLE ( 'NONE', #146, 6.349999999999999600 ) ;
#68 = VERTEX_POINT ( 'NONE', #136 ) ;
#69 = CARTESIAN_POINT ( 'NONE',  ( 0.0000000000000000000, 0.0000000000000000000, 0.0000000000000000000 ) ) ;
#70 = EDGE_CURVE ( 'NONE', #68, #24, #147, .T. ) ;
#71 = CIRCLE ( 'NONE', #80, 25.00000000000000000 ) ;
#72 = DIRECTION ( 'NONE',  ( 1.000000000000000000, 0.0000000000000000000, 0.0000000000000000000 ) ) ;
#73 =( NAMED_UNIT ( * ) SI_UNIT ( $, .STERADIAN. ) SOLID_ANGLE_UNIT ( ) );
#74 = ORIENTED_EDGE ( 'NONE', *, *, #70, .F. ) ;
#75 =( NAMED_UNIT ( * ) SI_UNIT ( $, .STERADIAN. ) SOLID_ANGLE_UNIT ( ) );
#76 = CARTESIAN_POINT ( 'NONE',  ( 27.36000000000000300, 0.0000000000000000000, 0.0000000000000000000 ) ) ;
#77 = CARTESIAN_POINT ( 'NONE',  ( 0.0000000000000000000, 0.0000000000000000000, 0.0000000000000000000 ) ) ;
#78 =( GEOMETRIC_REPRESENTATION_CONTEXT ( 3 ) GLOBAL_UNCERTAINTY_ASSIGNED_CONTEXT ( ( #44 ) ) GLOBAL_UNIT_ASSIGNED_CONTEXT ( ( #9, #161, #75 ) ) REPRESENTATION_CONTEXT ( 'NONE', 'WORKASPACE' ) );
#79 = ORIENTED_EDGE ( 'NONE', *, *, #83, .F. ) ;
#80 = AXIS2_PLACEMENT_3D ( 'NONE', #131, #45, #51 ) ;
#81 = SPHERICAL_SURFACE ( 'NONE', #31, 25.00000000000000000 ) ;
#82 = VECTOR ( 'NONE', #165, 1000.000000000000000 ) ;
#83 = EDGE_CURVE ( 'NONE', #95, #12, #56, .T. ) ;
#84 = MECHANICAL_DESIGN_GEOMETRIC_PRESENTATION_REPRESENTATION (  '', ( #13 ), #57 ) ;
#85 = FILL_AREA_STYLE ('',( #145 ) ) ;
#86 = ORIENTED_EDGE ( 'NONE', *, *, #46, .T. ) ;
#87 =( LENGTH_UNIT ( ) NAMED_UNIT ( * ) SI_UNIT ( .MILLI., .METRE. ) );
#88 =( NAMED_UNIT ( * ) PLANE_ANGLE_UNIT ( ) SI_UNIT ( $, .RADIAN. ) );
#89 = AXIS2_PLACEMENT_3D ( 'NONE', #76, #149, #151 ) ;
#90 = DIRECTION ( 'NONE',  ( 0.0000000000000000000, 0.0000000000000000000, 1.000000000000000000 ) ) ;
#91 = CARTESIAN_POINT ( 'NONE',  ( 0.0000000000000000000, 0.0000000000000000000, 0.0000000000000000000 ) ) ;
#92 = CARTESIAN_POINT ( 'NONE',  ( 3.179894541172907800, 0.0000000000000000000, 6.350000000000018300 ) ) ;
#93 = EDGE_LOOP ( 'NONE', ( #79, #50, #86 ) ) ;
#94 = MANIFOLD_SOLID_BREP ( 'Ðý×ª1', #156 ) ;
#95 = VERTEX_POINT ( 'NONE', #125 ) ;
#96 = EDGE_LOOP ( 'NONE', ( #36, #15, #63, #119 ) ) ;
#97 = SPHERICAL_SURFACE ( 'NONE', #89, 25.00000000000000000 ) ;
#98 =( GEOMETRIC_REPRESENTATION_CONTEXT ( 3 ) GLOBAL_UNCERTAINTY_ASSIGNED_CONTEXT ( ( #100 ) ) GLOBAL_UNIT_ASSIGNED_CONTEXT ( ( #127, #88, #163 ) ) REPRESENTATION_CONTEXT ( 'NONE', 'WORKASPACE' ) );
#99 = ORIENTED_EDGE ( 'NONE', *, *, #70, .T. ) ;
#100 = UNCERTAINTY_MEASURE_WITH_UNIT (LENGTH_MEASURE( 1.000000000000000100E-005 ), #127, 'distance_accuracy_value', 'NONE');
#101 = SURFACE_STYLE_USAGE ( .BOTH. , #7 ) ;
#102 = DIRECTION ( 'NONE',  ( 0.0000000000000000000, 0.0000000000000000000, 1.000000000000000000 ) ) ;
#103 = DIRECTION ( 'NONE',  ( 0.0000000000000000000, 0.0000000000000000000, 1.000000000000000000 ) ) ;
#104 = COLOUR_RGB ( '',1.000000000000000000, 1.000000000000000000, 1.000000000000000000 ) ;
#105 = AXIS2_PLACEMENT_3D ( 'NONE', #28, #123, #26 ) ;
#106 = CARTESIAN_POINT ( 'NONE',  ( 0.0000000000000000000, 0.0000000000000000000, 6.349999999999999600 ) ) ;
#107 = CYLINDRICAL_SURFACE ( 'NONE', #60, 6.350000000000008500 ) ;
#108 = EDGE_LOOP ( 'NONE', ( #148, #99 ) ) ;
#109 = AXIS2_PLACEMENT_3D ( 'NONE', #39, #54, #49 ) ;
#110 = COLOUR_RGB ( '',1.000000000000000000, 1.000000000000000000, 1.000000000000000000 ) ;
#111 = ORIENTED_EDGE ( 'NONE', *, *, #23, .T. ) ;
#112 = STYLED_ITEM ( 'NONE', ( #130 ), #94 ) ;
#113 = PRODUCT_DEFINITION_FORMATION_WITH_SPECIFIED_SOURCE ( 'ÈÎºÎ', '', #162, .NOT_KNOWN. ) ;
#114 = ORIENTED_EDGE ( 'NONE', *, *, #83, .T. ) ;
#115 = FILL_AREA_STYLE ('',( #30 ) ) ;
#116 = MECHANICAL_DESIGN_GEOMETRIC_PRESENTATION_REPRESENTATION (  '', ( #112 ), #98 ) ;
#117 = DIRECTION ( 'NONE',  ( -1.000000000000000000, -0.0000000000000000000, -0.0000000000000000000 ) ) ;
#118 = CARTESIAN_POINT ( 'NONE',  ( 0.0000000000000000000, 0.0000000000000000000, 0.0000000000000000000 ) ) ;
#119 = ORIENTED_EDGE ( 'NONE', *, *, #23, .F. ) ;
#120 = PRODUCT_DEFINITION_SHAPE ( 'NONE', 'NONE',  #16 ) ;
#121 = CIRCLE ( 'NONE', #40, 6.350000000000017400 ) ;
#122 = AXIS2_PLACEMENT_3D ( 'NONE', #129, #58, #72 ) ;
#123 = DIRECTION ( 'NONE',  ( -0.0000000000000000000, 1.000000000000000000, 1.224646799147353200E-016 ) ) ;
#124 = FACE_OUTER_BOUND ( 'NONE', #108, .T. ) ;
#125 = CARTESIAN_POINT ( 'NONE',  ( 3.179894541172907800, 7.776507174585714800E-016, -6.350000000000018300 ) ) ;
#126 = ORIENTED_EDGE ( 'NONE', *, *, #46, .F. ) ;
#127 =( LENGTH_UNIT ( ) NAMED_UNIT ( * ) SI_UNIT ( .MILLI., .METRE. ) );
#128 = DIRECTION ( 'NONE',  ( 0.0000000000000000000, 0.0000000000000000000, 1.000000000000000000 ) ) ;
#129 = CARTESIAN_POINT ( 'NONE',  ( 0.0000000000000000000, 0.0000000000000000000, 0.0000000000000000000 ) ) ;
#130 = PRESENTATION_STYLE_ASSIGNMENT (( #101 ) ) ;
#131 = CARTESIAN_POINT ( 'NONE',  ( 27.36000000000000300, 0.0000000000000000000, 0.0000000000000000000 ) ) ;
#132 = LINE ( 'NONE', #55, #37 ) ;
#133 = DIRECTION ( 'NONE',  ( 1.000000000000000000, 0.0000000000000000000, 0.0000000000000000000 ) ) ;
#134 = CARTESIAN_POINT ( 'NONE',  ( 3.179894541172907800, 0.0000000000000000000, 0.0000000000000000000 ) ) ;
#135 = FACE_OUTER_BOUND ( 'NONE', #144, .T. ) ;
#136 = CARTESIAN_POINT ( 'NONE',  ( 0.0000000000000000000, 7.776507174585698100E-016, -6.349999999999999600 ) ) ;
#137 = CARTESIAN_POINT ( 'NONE',  ( 27.36000000000000300, 0.0000000000000000000, 0.0000000000000000000 ) ) ;
#138 = APPLICATION_CONTEXT ( 'automotive_design' ) ;
#139 = VERTEX_POINT ( 'NONE', #92 ) ;
#140 = AXIS2_PLACEMENT_3D ( 'NONE', #118, #19, #103 ) ;
#141 = CARTESIAN_POINT ( 'NONE',  ( 2.360000000000001200, 0.0000000000000000000, 1.530808498934191500E-015 ) ) ;
#142 = CYLINDRICAL_SURFACE ( 'NONE', #140, 6.350000000000008500 ) ;
#143 = ADVANCED_FACE ( 'NONE', ( #61 ), #81, .F. ) ;
#144 = EDGE_LOOP ( 'NONE', ( #153, #38, #111, #74 ) ) ;
#145 = FILL_AREA_STYLE_COLOUR ( '', #110 ) ;
#146 = AXIS2_PLACEMENT_3D ( 'NONE', #91, #117, #32 ) ;
#147 = CIRCLE ( 'NONE', #48, 6.349999999999999600 ) ;
#148 = ORIENTED_EDGE ( 'NONE', *, *, #34, .T. ) ;
#149 = DIRECTION ( 'NONE',  ( 0.0000000000000000000, 1.000000000000000000, 0.0000000000000000000 ) ) ;
#150 = DIRECTION ( 'NONE',  ( 0.0000000000000000000, 1.000000000000000000, 0.0000000000000000000 ) ) ;
#151 = DIRECTION ( 'NONE',  ( 0.0000000000000000000, 0.0000000000000000000, 1.000000000000000000 ) ) ;
#152 = ADVANCED_FACE ( 'NONE', ( #47 ), #97, .F. ) ;
#153 = ORIENTED_EDGE ( 'NONE', *, *, #11, .F. ) ;
#154 = ADVANCED_FACE ( 'NONE', ( #135 ), #107, .T. ) ;
#155 = PRESENTATION_LAYER_ASSIGNMENT (  '', '', ( #13 ) ) ;
#156 = CLOSED_SHELL ( 'NONE', ( #65, #152, #35, #143, #154 ) ) ;
#157 = CARTESIAN_POINT ( 'NONE',  ( 0.0000000000000000000, 7.776507174585703000E-016, -6.350000000000008500 ) ) ;
#158 = APPLICATION_PROTOCOL_DEFINITION ( 'draft international standard', 'automotive_design', 1998, #138 ) ;
#159 = PRODUCT_CONTEXT ( 'NONE', #42, 'mechanical' ) ;
#160 =( NAMED_UNIT ( * ) PLANE_ANGLE_UNIT ( ) SI_UNIT ( $, .RADIAN. ) );
#161 =( NAMED_UNIT ( * ) PLANE_ANGLE_UNIT ( ) SI_UNIT ( $, .RADIAN. ) );
#162 = PRODUCT ( '432500', '432500', '', ( #159 ) ) ;
#163 =( NAMED_UNIT ( * ) SI_UNIT ( $, .STERADIAN. ) SOLID_ANGLE_UNIT ( ) );
#164 = CARTESIAN_POINT ( 'NONE',  ( 0.0000000000000000000, 0.0000000000000000000, 0.0000000000000000000 ) ) ;
#165 = DIRECTION ( 'NONE',  ( -1.000000000000000000, -0.0000000000000000000, -0.0000000000000000000 ) ) ;
#166 = SHAPE_DEFINITION_REPRESENTATION ( #120, #21 ) ;
ENDSEC;
END-ISO-10303-21;
