ISO-10303-21;
HEADER;
FILE_DESCRIPTION (( 'STEP AP214' ),
    '1' );
FILE_NAME ('469004.STEP',
    '2019-08-23T05:38:28',
    ( 'user' ),
    ( 'Î¢ÈíÖÐ¹ú' ),
    'SwSTEP 2.0',
    'SolidWorks 2016',
    '' );
FILE_SCHEMA (( 'AUTOMOTIVE_DESIGN' ));
ENDSEC;

DATA;
#1 = ORIENTED_EDGE ( 'NONE', *, *, #9, .F. ) ;
#2 = EDGE_CURVE ( 'NONE', #104, #158, #36, .T. ) ;
#3 = UNCERTAINTY_MEASURE_WITH_UNIT (LENGTH_MEASURE( 1.000000000000000100E-005 ), #152, 'distance_accuracy_value', 'NONE');
#4 = EDGE_CURVE ( 'NONE', #84, #27, #128, .T. ) ;
#5 = EDGE_CURVE ( 'NONE', #158, #122, #94, .T. ) ;
#6 = CARTESIAN_POINT ( 'NONE',  ( 17.37097072895656100, 11.87550162509206500, 20.00000000000000000 ) ) ;
#7 = CARTESIAN_POINT ( 'NONE',  ( 0.6861709744360347000, 0.8474711050240408800, 0.0000000000000000000 ) ) ;
#8 = DIRECTION ( 'NONE',  ( 0.7109728236074628300, -0.7032194850056641100, 0.0000000000000000000 ) ) ;
#9 = EDGE_CURVE ( 'NONE', #122, #27, #51, .T. ) ;
#10 = PRESENTATION_STYLE_ASSIGNMENT (( #63 ) ) ;
#11 = FILL_AREA_STYLE_COLOUR ( '', #118 ) ;
#12 = EDGE_CURVE ( 'NONE', #158, #84, #18, .T. ) ;
#13 = EDGE_LOOP ( 'NONE', ( #80, #31, #133, #129 ) ) ;
#14 = FACE_OUTER_BOUND ( 'NONE', #98, .T. ) ;
#15 = PRODUCT_DEFINITION_FORMATION_WITH_SPECIFIED_SOURCE ( 'ÈÎºÎ', '', #169, .NOT_KNOWN. ) ;
#16 = ADVANCED_FACE ( 'NONE', ( #156 ), #43, .F. ) ;
#17 = ORIENTED_EDGE ( 'NONE', *, *, #4, .F. ) ;
#18 = LINE ( 'NONE', #108, #117 ) ;
#19 = PRODUCT_DEFINITION_SHAPE ( 'NONE', 'NONE',  #72 ) ;
#20 = ADVANCED_BREP_SHAPE_REPRESENTATION ( '469004', ( #157, #49 ), #56 ) ;
#21 = PLANE ( 'NONE',  #92 ) ;
#22 = CARTESIAN_POINT ( 'NONE',  ( 17.37097072895656100, 11.87550162509206500, 20.00000000000000000 ) ) ;
#23 = DIRECTION ( 'NONE',  ( -0.5514015260034012000, 0.8342399877260262600, 0.0000000000000000000 ) ) ;
#24 = ORIENTED_EDGE ( 'NONE', *, *, #2, .T. ) ;
#25 = FACE_OUTER_BOUND ( 'NONE', #33, .T. ) ;
#26 = DIRECTION ( 'NONE',  ( 0.0000000000000000000, 0.0000000000000000000, -1.000000000000000000 ) ) ;
#27 = VERTEX_POINT ( 'NONE', #134 ) ;
#28 =( NAMED_UNIT ( * ) PLANE_ANGLE_UNIT ( ) SI_UNIT ( $, .RADIAN. ) );
#29 = PRESENTATION_STYLE_ASSIGNMENT (( #75 ) ) ;
#30 =( NAMED_UNIT ( * ) SI_UNIT ( $, .STERADIAN. ) SOLID_ANGLE_UNIT ( ) );
#31 = ORIENTED_EDGE ( 'NONE', *, *, #52, .F. ) ;
#32 = VECTOR ( 'NONE', #132, 1000.000000000000000 ) ;
#33 = EDGE_LOOP ( 'NONE', ( #93, #38, #1 ) ) ;
#34 = ORIENTED_EDGE ( 'NONE', *, *, #5, .T. ) ;
#35 = ADVANCED_FACE ( 'NONE', ( #25 ), #21, .T. ) ;
#36 = LINE ( 'NONE', #6, #95 ) ;
#37 =( GEOMETRIC_REPRESENTATION_CONTEXT ( 3 ) GLOBAL_UNCERTAINTY_ASSIGNED_CONTEXT ( ( #3 ) ) GLOBAL_UNIT_ASSIGNED_CONTEXT ( ( #152, #74, #165 ) ) REPRESENTATION_CONTEXT ( 'NONE', 'WORKASPACE' ) );
#38 = ORIENTED_EDGE ( 'NONE', *, *, #137, .F. ) ;
#39 = PRODUCT_RELATED_PRODUCT_CATEGORY ( 'part', '', ( #169 ) ) ;
#40 = DIRECTION ( 'NONE',  ( 1.000000000000000000, 0.0000000000000000000, 0.0000000000000000000 ) ) ;
#41 = VERTEX_POINT ( 'NONE', #120 ) ;
#42 = VECTOR ( 'NONE', #83, 1000.000000000000100 ) ;
#43 = PLANE ( 'NONE',  #88 ) ;
#44 = DIRECTION ( 'NONE',  ( -0.0000000000000000000, -0.0000000000000000000, -1.000000000000000000 ) ) ;
#45 = CARTESIAN_POINT ( 'NONE',  ( 0.6861709744360347000, 0.8474711050240408800, 20.00000000000000000 ) ) ;
#46 = FACE_OUTER_BOUND ( 'NONE', #13, .T. ) ;
#47 = FILL_AREA_STYLE ('',( #123 ) ) ;
#48 = APPLICATION_CONTEXT ( 'automotive_design' ) ;
#49 = AXIS2_PLACEMENT_3D ( 'NONE', #103, #113, #40 ) ;
#50 = ORIENTED_EDGE ( 'NONE', *, *, #2, .F. ) ;
#51 = LINE ( 'NONE', #82, #86 ) ;
#52 = EDGE_CURVE ( 'NONE', #104, #41, #159, .T. ) ;
#53 = ORIENTED_EDGE ( 'NONE', *, *, #12, .T. ) ;
#54 = PRESENTATION_LAYER_ASSIGNMENT (  '', '', ( #68 ) ) ;
#55 = SURFACE_STYLE_FILL_AREA ( #64 ) ;
#56 =( GEOMETRIC_REPRESENTATION_CONTEXT ( 3 ) GLOBAL_UNCERTAINTY_ASSIGNED_CONTEXT ( ( #77 ) ) GLOBAL_UNIT_ASSIGNED_CONTEXT ( ( #102, #28, #112 ) ) REPRESENTATION_CONTEXT ( 'NONE', 'WORKASPACE' ) );
#57 = CARTESIAN_POINT ( 'NONE',  ( 17.37097072895656100, 11.87550162509206500, 20.00000000000000000 ) ) ;
#58 = AXIS2_PLACEMENT_3D ( 'NONE', #45, #151, #73 ) ;
#59 = CARTESIAN_POINT ( 'NONE',  ( 0.0000000000000000000, 0.0000000000000000000, 0.0000000000000000000 ) ) ;
#60 = VECTOR ( 'NONE', #160, 1000.000000000000100 ) ;
#61 = CARTESIAN_POINT ( 'NONE',  ( 0.6861709744360347000, 0.8474711050240408800, 20.00000000000000000 ) ) ;
#62 = PLANE ( 'NONE',  #58 ) ;
#63 = SURFACE_STYLE_USAGE ( .BOTH. , #136 ) ;
#64 = FILL_AREA_STYLE ('',( #11 ) ) ;
#65 = ORIENTED_EDGE ( 'NONE', *, *, #5, .F. ) ;
#66 = ORIENTED_EDGE ( 'NONE', *, *, #89, .T. ) ;
#67 = DIRECTION ( 'NONE',  ( -0.0000000000000000000, -0.0000000000000000000, -1.000000000000000000 ) ) ;
#68 = STYLED_ITEM ( 'NONE', ( #10 ), #157 ) ;
#69 = DIRECTION ( 'NONE',  ( -1.000000000000000000, 0.0000000000000000000, 0.0000000000000000000 ) ) ;
#70 = EDGE_CURVE ( 'NONE', #84, #104, #150, .T. ) ;
#71 = CARTESIAN_POINT ( 'NONE',  ( 17.37097072895656100, 11.87550162509206500, 20.00000000000000000 ) ) ;
#72 = PRODUCT_DEFINITION ( 'Î´Öª', '', #15, #105 ) ;
#73 = DIRECTION ( 'NONE',  ( 0.09777970958415356500, 0.9952080829623715100, 0.0000000000000000000 ) ) ;
#74 =( NAMED_UNIT ( * ) PLANE_ANGLE_UNIT ( ) SI_UNIT ( $, .RADIAN. ) );
#75 = SURFACE_STYLE_USAGE ( .BOTH. , #153 ) ;
#76 = EDGE_LOOP ( 'NONE', ( #66, #65, #50, #147 ) ) ;
#77 = UNCERTAINTY_MEASURE_WITH_UNIT (LENGTH_MEASURE( 1.000000000000000100E-005 ), #102, 'distance_accuracy_value', 'NONE');
#78 = LINE ( 'NONE', #7, #42 ) ;
#79 = ADVANCED_FACE ( 'NONE', ( #14 ), #148, .F. ) ;
#80 = ORIENTED_EDGE ( 'NONE', *, *, #137, .T. ) ;
#81 = FACE_OUTER_BOUND ( 'NONE', #155, .T. ) ;
#82 = CARTESIAN_POINT ( 'NONE',  ( 17.37097072895656100, 11.87550162509206500, 0.0000000000000000000 ) ) ;
#83 = DIRECTION ( 'NONE',  ( -0.09777970958415357900, -0.9952080829623715100, -0.0000000000000000000 ) ) ;
#84 = VERTEX_POINT ( 'NONE', #135 ) ;
#85 = DIRECTION ( 'NONE',  ( -0.7032194850056642200, -0.7109728236074629400, 0.0000000000000000000 ) ) ;
#86 = VECTOR ( 'NONE', #119, 1000.000000000000100 ) ;
#87 = CARTESIAN_POINT ( 'NONE',  ( 17.37097072895656100, 11.87550162509206500, 20.00000000000000000 ) ) ;
#88 = AXIS2_PLACEMENT_3D ( 'NONE', #22, #23, #99 ) ;
#89 = EDGE_CURVE ( 'NONE', #41, #122, #126, .T. ) ;
#90 =( NAMED_UNIT ( * ) PLANE_ANGLE_UNIT ( ) SI_UNIT ( $, .RADIAN. ) );
#91 = VECTOR ( 'NONE', #67, 1000.000000000000000 ) ;
#92 = AXIS2_PLACEMENT_3D ( 'NONE', #59, #146, #69 ) ;
#93 = ORIENTED_EDGE ( 'NONE', *, *, #89, .F. ) ;
#94 = LINE ( 'NONE', #57, #32 ) ;
#95 = VECTOR ( 'NONE', #107, 1000.000000000000000 ) ;
#96 = MECHANICAL_DESIGN_GEOMETRIC_PRESENTATION_REPRESENTATION (  '', ( #68 ), #37 ) ;
#97 = DIRECTION ( 'NONE',  ( -0.7109728236074628300, 0.7032194850056641100, 0.0000000000000000000 ) ) ;
#98 = EDGE_LOOP ( 'NONE', ( #142, #17, #168, #34 ) ) ;
#99 = DIRECTION ( 'NONE',  ( -0.8342399877260262600, -0.5514015260034012000, 0.0000000000000000000 ) ) ;
#100 = CARTESIAN_POINT ( 'NONE',  ( 17.37097072895656100, 11.87550162509206500, 0.0000000000000000000 ) ) ;
#101 = PLANE ( 'NONE',  #144 ) ;
#102 =( LENGTH_UNIT ( ) NAMED_UNIT ( * ) SI_UNIT ( .MILLI., .METRE. ) );
#103 = CARTESIAN_POINT ( 'NONE',  ( 0.0000000000000000000, 0.0000000000000000000, 0.0000000000000000000 ) ) ;
#104 = VERTEX_POINT ( 'NONE', #121 ) ;
#105 = PRODUCT_DEFINITION_CONTEXT ( 'detailed design', #48, 'design' ) ;
#106 = UNCERTAINTY_MEASURE_WITH_UNIT (LENGTH_MEASURE( 1.000000000000000100E-005 ), #166, 'distance_accuracy_value', 'NONE');
#107 = DIRECTION ( 'NONE',  ( 0.8342399877260262600, 0.5514015260034012000, -0.0000000000000000000 ) ) ;
#108 = CARTESIAN_POINT ( 'NONE',  ( 17.37097072895656100, 11.87550162509206500, 20.00000000000000000 ) ) ;
#109 = CARTESIAN_POINT ( 'NONE',  ( 0.6861709744360347000, 0.8474711050240408800, 20.00000000000000000 ) ) ;
#110 = CARTESIAN_POINT ( 'NONE',  ( 17.37097072895656100, 11.87550162509206500, 0.0000000000000000000 ) ) ;
#111 = VECTOR ( 'NONE', #163, 1000.000000000000000 ) ;
#112 =( NAMED_UNIT ( * ) SI_UNIT ( $, .STERADIAN. ) SOLID_ANGLE_UNIT ( ) );
#113 = DIRECTION ( 'NONE',  ( 0.0000000000000000000, 0.0000000000000000000, 1.000000000000000000 ) ) ;
#114 = STYLED_ITEM ( 'NONE', ( #29 ), #20 ) ;
#115 = VECTOR ( 'NONE', #44, 1000.000000000000000 ) ;
#116 = ADVANCED_FACE ( 'NONE', ( #46 ), #62, .F. ) ;
#117 = VECTOR ( 'NONE', #97, 1000.000000000000100 ) ;
#118 = COLOUR_RGB ( '',1.000000000000000000, 1.000000000000000000, 1.000000000000000000 ) ;
#119 = DIRECTION ( 'NONE',  ( -0.7109728236074628300, 0.7032194850056641100, 0.0000000000000000000 ) ) ;
#120 = CARTESIAN_POINT ( 'NONE',  ( 0.6861709744360347000, 0.8474711050240408800, 0.0000000000000000000 ) ) ;
#121 = CARTESIAN_POINT ( 'NONE',  ( 0.6861709744360347000, 0.8474711050240408800, 20.00000000000000000 ) ) ;
#122 = VERTEX_POINT ( 'NONE', #110 ) ;
#123 = FILL_AREA_STYLE_COLOUR ( '', #143 ) ;
#124 = APPLICATION_PROTOCOL_DEFINITION ( 'draft international standard', 'automotive_design', 1998, #138 ) ;
#125 = PRODUCT_CONTEXT ( 'NONE', #138, 'mechanical' ) ;
#126 = LINE ( 'NONE', #100, #111 ) ;
#127 =( GEOMETRIC_REPRESENTATION_CONTEXT ( 3 ) GLOBAL_UNCERTAINTY_ASSIGNED_CONTEXT ( ( #106 ) ) GLOBAL_UNIT_ASSIGNED_CONTEXT ( ( #166, #90, #30 ) ) REPRESENTATION_CONTEXT ( 'NONE', 'WORKASPACE' ) );
#128 = LINE ( 'NONE', #145, #91 ) ;
#129 = ORIENTED_EDGE ( 'NONE', *, *, #4, .T. ) ;
#130 = ADVANCED_FACE ( 'NONE', ( #81 ), #101, .F. ) ;
#131 = ORIENTED_EDGE ( 'NONE', *, *, #70, .T. ) ;
#132 = DIRECTION ( 'NONE',  ( -0.0000000000000000000, -0.0000000000000000000, -1.000000000000000000 ) ) ;
#133 = ORIENTED_EDGE ( 'NONE', *, *, #70, .F. ) ;
#134 = CARTESIAN_POINT ( 'NONE',  ( 3.151514256807304000, 25.93989132520534800, 0.0000000000000000000 ) ) ;
#135 = CARTESIAN_POINT ( 'NONE',  ( 3.151514256807304000, 25.93989132520534800, 20.00000000000000000 ) ) ;
#136 = SURFACE_SIDE_STYLE ('',( #141 ) ) ;
#137 = EDGE_CURVE ( 'NONE', #27, #41, #78, .T. ) ;
#138 = APPLICATION_CONTEXT ( 'automotive_design' ) ;
#139 = APPLICATION_PROTOCOL_DEFINITION ( 'draft international standard', 'automotive_design', 1998, #48 ) ;
#140 = MECHANICAL_DESIGN_GEOMETRIC_PRESENTATION_REPRESENTATION (  '', ( #114 ), #127 ) ;
#141 = SURFACE_STYLE_FILL_AREA ( #47 ) ;
#142 = ORIENTED_EDGE ( 'NONE', *, *, #9, .T. ) ;
#143 = COLOUR_RGB ( '',1.000000000000000000, 1.000000000000000000, 1.000000000000000000 ) ;
#144 = AXIS2_PLACEMENT_3D ( 'NONE', #164, #26, #162 ) ;
#145 = CARTESIAN_POINT ( 'NONE',  ( 3.151514256807304000, 25.93989132520534800, 20.00000000000000000 ) ) ;
#146 = DIRECTION ( 'NONE',  ( 0.0000000000000000000, 0.0000000000000000000, -1.000000000000000000 ) ) ;
#147 = ORIENTED_EDGE ( 'NONE', *, *, #52, .T. ) ;
#148 = PLANE ( 'NONE',  #167 ) ;
#149 = SHAPE_DEFINITION_REPRESENTATION ( #19, #20 ) ;
#150 = LINE ( 'NONE', #61, #60 ) ;
#151 = DIRECTION ( 'NONE',  ( 0.9952080829623715100, -0.09777970958415356500, 0.0000000000000000000 ) ) ;
#152 =( LENGTH_UNIT ( ) NAMED_UNIT ( * ) SI_UNIT ( .MILLI., .METRE. ) );
#153 = SURFACE_SIDE_STYLE ('',( #55 ) ) ;
#154 = PRESENTATION_LAYER_ASSIGNMENT (  '', '', ( #114 ) ) ;
#155 = EDGE_LOOP ( 'NONE', ( #24, #53, #131 ) ) ;
#156 = FACE_OUTER_BOUND ( 'NONE', #76, .T. ) ;
#157 = MANIFOLD_SOLID_BREP ( 'Í¹Ì¨-À­Éì1', #161 ) ;
#158 = VERTEX_POINT ( 'NONE', #87 ) ;
#159 = LINE ( 'NONE', #109, #115 ) ;
#160 = DIRECTION ( 'NONE',  ( -0.09777970958415357900, -0.9952080829623715100, -0.0000000000000000000 ) ) ;
#161 = CLOSED_SHELL ( 'NONE', ( #16, #79, #116, #130, #35 ) ) ;
#162 = DIRECTION ( 'NONE',  ( -1.000000000000000000, 0.0000000000000000000, 0.0000000000000000000 ) ) ;
#163 = DIRECTION ( 'NONE',  ( 0.8342399877260262600, 0.5514015260034012000, -0.0000000000000000000 ) ) ;
#164 = CARTESIAN_POINT ( 'NONE',  ( 0.0000000000000000000, 0.0000000000000000000, 20.00000000000000000 ) ) ;
#165 =( NAMED_UNIT ( * ) SI_UNIT ( $, .STERADIAN. ) SOLID_ANGLE_UNIT ( ) );
#166 =( LENGTH_UNIT ( ) NAMED_UNIT ( * ) SI_UNIT ( .MILLI., .METRE. ) );
#167 = AXIS2_PLACEMENT_3D ( 'NONE', #71, #85, #8 ) ;
#168 = ORIENTED_EDGE ( 'NONE', *, *, #12, .F. ) ;
#169 = PRODUCT ( '469004', '469004', '', ( #125 ) ) ;
ENDSEC;
END-ISO-10303-21;
